top separator

Home

Forum

What's New

Submit a Tab

FAQ

Links

Contact Us

Link to Us

MuSpy.com

MetalTabs.com logo

Bands

0-9

A

B

C

D

E

F

G

H

I

J

K

L

M

N

O

P

Q

R

S

T

U

V

W

X

Y

Z

Search

What

Where
 

Dying Fetus - "Bringing Back The Glory" Guitar Tab

Plain Text Version
More Dying Fetus Tabs

Hits: 2493
Rated: 1.00 out of 5 (3 votes)
Updated: 2004-07-14 04:36:36

 

By:

sendpm.gif

email.gif

Important note
This tab is available online because we obtained explicit permission from Dying Fetus or their label.


#----------------------------------PLEASE NOTE---------------------------------#
#This file is the author's own work and represents their interpretation of the #
#song. You may only use this file for private study, scholarship, or research. #
#Unless specified otherwise, this is NOT an official tab from the band members.#
#------------------------------------------------------------------------------#

  Visit MetalTabs.com for more metal tablature
  
[ D Y I N G   F E T U S ]
Song: Bringing Back The Glory
Album: Grotesque Impalement
Transcribed by: KALVA
Contact: kalva_dm@hotmail.com | kalva@grindcore.net
-- www.dying-fetus.cjb.net --Dying Fetus Fan Site (Spanish)

TUNE: (D-A-D-G-B-e)

Riff 1
E-|--------------------------------------|x6
B-|--------------------------------------|
G-|--------------------------------------|
C-|----6--5--8--7--5/6----6--5--8--7--4--|
A-|----4--3--6--5--3/4----4--3--6--5--2--|
C-|-00--0--0--0--0-----00--0--0--0--0----|
    ..  .  .  .  .     ..  .  .  .  .

Riff 2
E-|-------------------------------|x4
B-|-------------------------------|
G-|-------------------------------|
C-|-5-3/6--8\6-5------------------|
A-|-3-1/4--6\4-3--1-0-0-0-1-0-0-0-|
C-|---------------1-0-0-0-1-0-0-0-|
                    . . .   . . .

Riff 3
E-|----------------------------------------------------|x5
B-|----------------------------------------------------|
G-|----------------------------------------------------|
C-|----------------------------------------------------|
A-|----------------------------------------------------|
C-|-0000-10-000000-11-10-9-10-0000-10-000000-10-11-13--|
    ....    ......            ....    ......

Play Riff 1 x 6
Then Riff 2 x 4

Riff 4
E-|-------------------------------------------------------|x8
B-|-------------------------------------------------------|
G-|-------------------------------------------------------|
C-|-------------------------------------------------------|
A-|0--0-0-3/5---8\7---3----6--0--0-0-3/5---6\5---5-8-7-5--|
C-|0--0-0-3/5-0-6\5-0-3-00-6--0--0-0-3/5-0-6\5-0-3-6-5-3--|
      . .           .   ..      . .     .      .   . .

Play Riff 3 x 3

- GAME OVER -

  Visit MetalTabs.com for more metal tablature

bottom separator

Contact Us | Privacy Policy | Disclaimer | Legal Notice
Copyright © 2001-2014 MetalTabs.com. All Rights Reserved.