top separator

Home

Forum

What's New

Submit a Tab

FAQ

Links

Contact Us

Link to Us

MuSpy.com

MetalTabs.com logo

Bands

0-9

A

B

C

D

E

F

G

H

I

J

K

L

M

N

O

P

Q

R

S

T

U

V

W

X

Y

Z

Search

What

Where
 

Dying Fetus - "Schematics" Guitar Tab

Plain Text Version
More Dying Fetus Tabs

Hits: 4875
Rated: 2.20 out of 5 (10 votes)
Updated: 2004-07-14 04:36:00

 

By:

sendpm.gif

email.gif

Important note
This tab is available online because we obtained explicit permission from Dying Fetus or their label.


#----------------------------------PLEASE NOTE---------------------------------#
#This file is the author's own work and represents their interpretation of the #
#song. You may only use this file for private study, scholarship, or research. #
#Unless specified otherwise, this is NOT an official tab from the band members.#
#------------------------------------------------------------------------------#

  Visit MetalTabs.com for more metal tablature
  
[ D Y I N G   F E T U S ]
Song: Schematics
Album: Stop At Nothing
Transcribed by: KALVA
Contact: kalva_dm@hotmail.com | kalva@grindcore.net
-- www.dying-fetus.cjb.net --Dying Fetus Fan Site (Spanish)


TUNE: (D-A-D-G-B-e)

Riff 1
e-|---------|---|---|----------|(x4)|----------|end last time
B-|-^-------|---|---|----------|    |----------|
G-|-3-------|---|---|----------|    |----------|
C-|---------|-%-|-%-|----------|    |----------|
A-|---0-1-0-|---|---|-1-2-1-0--|    |-1-2--1-2-|
c-|---0-1-0-|---|---|-1-2-1-0--|    |-1-2--1-2-|
     . . .           . . . .         . .  . .

Riff 2
e-|-------------------------(x4)|...then x8 verse
B-|-----------------------------|(Unweaving strands of failure...)
G-|-----------------------------|
C-|----------------4-3-4-5-4-3--|
A-|-0000-2222-1111-2-1-2-3-2-1--|
c-|-0000-2222-1111--------------|
   .... .... ....

Riff 3
e-|----------------------------------|----------------------------------|
B-|----------------------------------|----------------------------------|
G-|----------------------------------|----------------------------------|
C-|-------33------33------33---------|-------33------33------33-------3-|
A-|-----22------22------22-----------|-----22------22------22-----------|
c-|-5544----5544----5544----33443322-|-5544----5544----5544----3344332--|
(Solutions we seek to our mortality...)

e-|----------------------------------|----------------------------------|
B-|----------------------------------|----------------------------------|
G-|----------------------------------|----------------------------------|
C-|-------33------33------33---------|-------33------33------33--22--33-|
A-|-----22------22------22-----------|-----22------22------22-----------|
c-|-5544----5544----5544----33443322-|-5544----5544----5544----33--22---|
(Nature's course diverted, by men who interfere...)

Riff 4
e-|---------|---|---|---------|---------|---|---|----------|(x2)
B-|---------|---|---|---------|---------|---|---|----------|
G-|---------|---|---|---------|---------|---|---|----------|
C-|---------|-%-|-%-|---------|---------|-%-|-%-|---22--33-|
A-|-3-1-4-1-|---|---|-3-4-3-1-|-3-1-4-1-|---|---|----------|
c-|-3-1-4-1-|---|---|-3-4-3-1-|-3-1-4-1-|---|---|-33--22---|
   . . . .            . . . .   . . . .
(Blindly seizing solace in easily spun lies...)

Riff 5
e-|----------------------------------------(x4)-|
B-|---------------------------------------------|
G-|---------------------------------------------|
C-|---------------------------------------------|
A-|-0-1-0-2-1-4-3-0-1-2-0-1-0-1-0---0-1-0-3-0-4-|
c-|-0-1-0-2-1-4-3-0-1-2-0-1-0-1-0---0-1-0-3-0-4-|
    . . . . . . . . . . . . . . .   . . . . . .
(Living this undying prophecy...)

Riff 6
*Left Guitar                        *Both Guitars
e-|----------------------------(x2)-|----------------------------|
B-|---------------------------------|----------------------------|
G-|---------------------------------|----------------------------|then x4 verse
C-|---------------------------------|----------------------------|(Magnified...)
A-|-4-3-0-1-2-0-1-2-----------------|-4-3--3-2-------------------|
c-|-4-3-0-1-2-0-1-2-0001122-0001122-|-4-3--3-2---0001122-0001122-|
    . . . . . . . .                  . .  . .

Riff 7
e-|-------------------------------------------------------------(x2)-|
B-|------------------------------------------------------------------|
G-|------------------------------------------------------------------|
C-|------------------------------------------------------------------|
A-|-4-3-0-1-2-1--4-3-1-0-1-2-1-3-2--4-3-0-1-2-1--4-3-0-0-1-2-0-0-2-3-|
c-|-4-3-0-1-2-1--4-3-1-0-1-2-1-3-2--4-3-0-1-2-1--4-3-0-0-1-2-0-0-2-3-|
    . . . . . .  . . . . . . . . .  . . . . . .  . . . .     . .

Play Riff 6 x 4 verse
(buying into everything...)

Riff 8
e-|---------------------------------------------------------|
B-|---------------------------------------------------------|
G-|---------------------------------------------------------|
C-|---------555-------------555-------------555-------------|
A-|---------------------------------------------------------|
c-|-555-444-----111-555-444-----111-555-444-----111-555-444-|
    ... ... ... ... ... ... ... ... ... ... ... ... ... ...

Riff 9
e-|--------------------------------------------------------------|
B-|--------------------------------------------------------------|
G-|--------------------------------------------------------------|
C-|--------------------------------------------------------------|
A-|---------------------------------------------0h6h9h13p9p6p0-0-|
c-|-0h6h9h13p9p6p-0h7h10h14p10p7p-0h6h9h13p9p6p----------------0-|

Riff 10
*Left Guitar
e-|-------------------------------------------(x2)-|then x4 verse
B-|------------------------------------------------|(Instinct, we breed...)
G-|------------------------------------------------|
C-|------------------------------------------------|
A-|-4-3-0-0-2-3-0-0-3h4p3--------1-0-0-2-0-0-3h4p3-|
c-|-4-3-0-0-2-3-0-0-3h4p3-0-0000-1-0-0-2-0-0-3h4p3-|
        . .     . .       . ....   . .   . .

Play Riff 3 x 1
then Riff 5 x 4
End
e-|---|
B-|---|
G-|---|
C-|---|
A-|-0-|
c-|-0-|

- GAME OVER -

  Visit MetalTabs.com for more metal tablature

bottom separator

Contact Us | Privacy Policy | Disclaimer | Legal Notice
Copyright © 2001-2014 MetalTabs.com. All Rights Reserved.