top separator

Home

Forum

What's New

Submit a Tab

FAQ

Links

Contact Us

Link to Us

MuSpy.com

MetalTabs.com logo

Bands

0-9

A

B

C

D

E

F

G

H

I

J

K

L

M

N

O

P

Q

R

S

T

U

V

W

X

Y

Z

Search

What

Where
 

Dying Fetus - "One Shot, One Kill" Guitar Tab

Plain Text Version
More Dying Fetus Tabs

Hits: 5702
Rated: 1.62 out of 5 (8 votes)
Updated: 2004-07-14 04:35:17

 

By:

sendpm.gif

email.gif

Important note
This tab is available online because we obtained explicit permission from Dying Fetus or their label.


#----------------------------------PLEASE NOTE---------------------------------#
#This file is the author's own work and represents their interpretation of the #
#song. You may only use this file for private study, scholarship, or research. #
#Unless specified otherwise, this is NOT an official tab from the band members.#
#------------------------------------------------------------------------------#

  Visit MetalTabs.com for more metal tablature
  
[ D Y I N G   F E T U S ]
Song: One Shot, One Kill
Album: Stop At Nothing
Transcribed by: KALVA
Contact: kalva_dm@hotmail.com | kalva@grindcore.net
-- www.dying-fetus.cjb.net --Dying Fetus Fan Site (Spanish)

TUNE: (c-A-C-G-B-e)

Riff 1                                                     end last time
e-|------------------------------------------------(x4)-| |-------------|
B-|-----------------------------------------------------| |-------------|
G-|-----------------------------------------------------| |-------------|
C-|-----------------------------------------------------| |-5-4---------|
A-|---------------------------------------1--0-0-5--4-5-| |-3-2-5-4-5-4-|
c-|-000000004000000004005000000004000000001--0-0-5--4-5-| |-----5-4-5-4-|
    ......................................

Riff 2
e-|-----------------------------------------------------(x4)-|
B-|----------------------------------------------------------|
G-|----------------------------------------------------------|
C-|----------------------------------------------------------|
A-|--------2/1------------2/1-4\5--------2/1-----1-----5-4\5-|
c-|-0-0000-2/1-0-0-0-0000-2/1-4\5-0-0000-2/1-0-0-1-0-0-5-4\5-|
    . ....     . . . ....         . ....     . .   . .
(Provocation undeclared...)

Riff 3
e-|-------------------------------------(x2)-|
B-|------------------------------------------|
G-|------------------------------------------|
C-|------------------------------------------|
A-|-2--2------3----0--3--2--2------5----6--3-|
c-|-2--2------3----0--3--2--2------5----6--3-|
(Terror, innocent life destroyed by...)

Play Riff 3 x 4 verse
(Idiot protests...)

Riff 4
e-|----------------------------------------------------------------
B-|----------------------------------------------------------------
G-|------------------------------------------------[tr]------------
C-|-99h(5)----------99h(5)----------99h(5)----------10-66p55h66p55-
A-|------66p55h66p55-----66p55h66p55-----66p55h66p55---------------
c-|----------------------------------------------------------------

------------------------------------------------------(x4)-|
-----------------------------------------------------------|
-----------------------------------------------------------|
-99h(5)----------99h(5)-----------[  v e r y    f a s t  ]-|
------66p55h66p55-----66p55h66p55-9-6-5-------5-2-1--------|
----------------------------------------8-6-5-------4-2-1--|
                                  . . . . . . . . . . . .

Riff 5
e-|----------------------------------------------------(x4)-|
B-|---------------------------------------------------------|
G-|---------------------------------------------------------|
C-|-3-------------3-------------3---------------------------|
A-|-1-0-1-2-1-0-0-1-0-1-2-1-0-0-1-0-1-2-1-0-0-4--0-0-5--4\5-|
c-|---0-1-2-1-0-0---0-1-2-1-0-0---0-1-2-1-0-0-4--0-0-5--4\5-|
      . . . . . .   . . . . . .   . . . . . .    . .
(They want to kill the free...)

Riff 5a
e-|---------------------------------|
B-|---------------------------------|
G-|---------------------------------|
C-|-[ t r e m o l o   p i c k e d ]-|
A-|-6------6------6-----------------|
c-|--012100-012100-012100-4-005-4\5-|

Riff 5b
e-|-------------------------------------------------------(x4)-|
B-|------------------------------------------------------------|
G-|------------------------------------------------------------|
C-|-8--------------8--------------8----------------------------|
A-|-6--0-1-2-1---0-6--0-1-2-1---0-6--0-1-2-1---0-4--0-0-5--4\5-|
c-|----0-1-2-1---0----0-1-2-1---0----0-1-2-1---0-4--0-0-5--4\5-|
       . . . .   .    . . . .   .    . . . .   .    . .
(One Shot, One Kill...)

Riff 6
e-|------[     p l a y      t h i s     v e r y       f a s t     ]-
B-|-----------------------------------------------------------------
G-|-----------------1-4-1-------1-4-1-------0-3-0-------0-3-0-------
C-|-------0h3p0-----------2-1-2-------2-1-2-------1-0-1-------1-0-1-
A-|-5-1-5------1----------------------------------------------------
c-|-5-1-5-------2---------------------------------------------------
    . . .
---------------------------------------------------------------------(x2)-|
--------------------------------------------------------------------------|
-3-6-3-------3-6-3-------2-5-2-------2-5-2--------------------------------|
-------4-3-4-------4-3-4-------4-2-4-------4-2-4--------------------------|
------------------------------------------------------0-----0-----0-----0-|
--------------------------------------------------0-3-4-0-3-4-0-3-4-0-3-4-|
                                                  . . . . . . . . . . . .
Riff 6a
e-|--------------------------------------------------------------------------
B-|--------------------------------------------------------------------------
G-|-1-4-1-------1-4-1-------0-3-0-------0-3-0--------3-6-3-------3-6-3-------
C-|-------2-1-2-------2-1-2-------1-0-1-------1-0-1--------4-3-4-------4-3-4-
A-|--------------------------------------------------------------------------
c-|--------------------------------------------------------------------------

--------------------------------------------------------------------------|
--------------------------------------------------------------------------|
-2-5-2-------2-5-2--------5-8-5-------5-8-5-------4-7-4-------4-7-4-------|
-------4-2-4-------4-2-4--------6-5-6-------6-5-6-------5-4-5-------5-4-5-|
--------------------------------------------------------------------------|
--------------------------------------------------------------------------|

Riff 7          Part1                    Part 2
e-|---------------------------|-------------------------|
B-|---------------------------|-------------------------|
G-|-0-3-0-----1-4-1-----0-3-0-|-0-3-0-----1-4-1---------|
C-|-------1---------2---------|-------1---------2-------|
A-|---------0---------1-------|---------0---------1-1-2-|
c-|---------------------------|---------------------1-2-|
                                                    . .
Play Riff 7 Part 1, ending play this:
e-|-3h6p3---6h9p6---9h12p9-----12h15p12-----|
B-|------5-------8--------11-----------14---|
G-|-------6-------9---------12-----------15-|
C-|-----------------------------------------|
A-|-----------------------------------------|
c-|-----------------------------------------|

Again Play Riff 7 Part 1, ending play this:
e-|-----------------------------------------------|
B-|-4-7-------------------------------------------|
G-|-----0---0-0-3-0-------------------------------|
C-|-------4---------1-0-1-1-4-1-------------------|
A-|-----------------------------2-1-2-2-5-2-------|
c-|-----------------------------------------3-2-3-|

Again Play Riff 7 Part 1, ending play this:
e-|-10-11-14-11-10--------------------------------------------------|
B-|----------------13-11-10-8-10-11-10-8----------------------------|
G-|--------------------------------------10-8-7---------------------|
C-|---------------------------------------------7-5-4---------------|
A-|---------------------------------------------------6-5-3-------1-|
c-|---------------------------------------------------------6p5p3-1-|

Riff 8
*Right Guitar                                          *Both Guitars
e-|----------------------------------------------------------(x2)-|Play x6 verse
B-|---------------------------------------------------------------|
G-|---------------------------------------------------------------|
C-|-------3-----------------------------3-------------------------|
A-|-0-0---1---0---1---0---1-4-1-3-0-----1---0---1---0---1-4-1-3-0-|
c-|-0-0000--000-001-000-001-4-1-3-0-0000--000-001-000-001-4-1-3-0-|
       ...  ..  ..  ..  ..          ....  ..  ..  ..  ..

Riff 9
e-|----------------------------------------------------------(x2)-|
B-|---------------------------------------------------------------|
G-|---------------------------------------------------------------|
C-|-------3-------------------------------3-----------------------|
A-|-0-----1---------0-----1---------0-----1---0---4---4-4-4-4-4-4-|
c-|-0-0000--000000000-00001-000000000-0000--000-004---4-4-4-4-4-4-|
      ....  ........  ....  ........  ....  ..  ..


Riff 10                                            end
e-|----------------------------------------(x4)-| |---|
B-|---------------------------------------------| |---|
G-|---------------------------------------------| |---|
C-|---------------------------------------------| |---|
A-|-1----4-----1----3-----1----4----4-4-4-4-4-4-| |-0-|
c-|-1-00-4-000-1-00-3-000-1-00-4-00-4-4-4-4-4-4-| |-0-|
      ..   ...   ..   ...   ..   ..
(Approach by stealth...)

- GAME OVER -

  Visit MetalTabs.com for more metal tablature

bottom separator

Contact Us | Privacy Policy | Disclaimer | Legal Notice
Copyright © 2001-2014 MetalTabs.com. All Rights Reserved.