top separator

Home

Forum

What's New

Submit a Tab

FAQ

Links

Contact Us

Link to Us

MetalTabs.com logo

Bands

0-9

A

B

C

D

E

F

G

H

I

J

K

L

M

N

O

P

Q

R

S

T

U

V

W

X

Y

Z

Search

What

Where
 

Dying Fetus - "Born in Sodom" Guitar Tab

Plain Text Version
More Dying Fetus Tabs

Hits: 3074
Rated: 1.00 out of 5 (3 votes)
Updated: 2004-07-14 04:34:54

 

By:

sendpm.gif

email.gif

Important note
This tab is available online because we obtained explicit permission from Dying Fetus or their label.


#----------------------------------PLEASE NOTE---------------------------------#
#This file is the author's own work and represents their interpretation of the #
#song. You may only use this file for private study, scholarship, or research. #
#Unless specified otherwise, this is NOT an official tab from the band members.#
#------------------------------------------------------------------------------#

  Visit MetalTabs.com for more metal tablature
  
[ D Y I N G   F E T U S ]
Song: Born In Sodom
Album: Destroy The Opposition
Transcribed by: KALVA
Contact: kalva_dm@hotmail.com | kalva@grindcore.net
-- www.dying-fetus.cjb.net --Dying Fetus Fan Site (Spanish)

TUNE: (c-A-C-G-B-e)

Riff 1
e-|--------------------------------------------------------(x4)-|Play x4 verse
B-|-------------------------------------------------------------|
G-|-------------------------------------------------------------|
C-|-----44442222---------------------------44445555444444444444-|
A-|-------------44442222555544442222---2222---------------------|
c-|-0000-----------------------------00-------------------------|

Riff 2
e-|------------------------------------------------|
B-|------------------------------------------------|
G-|------------------------------------------------|
C-|----------------------------------------------^-|
A-|-2-2--2-6-6----2-2--2-5-4-5--2-2--2-6-2-4-5---4-|
c-|-2-2--2-6-6-6--2-2--2-5-4-5--2-2--2-6-2-4-5-----|
    .    . .   .  .    .         .    .
(Chemical children are raised in the streets...)

------------------------------------------------|(x2)
----------------------------------------------^-|
----------------------------------------------4-|
------------------------------------------------|
-2-2--2-6-6----2-2--2-5-4-5--2-2--2-6-2-4-5-----|
-2-2--2-6-6-6--2-2--2-5-4-5--2-2--2-6-2-4-5-----|
 .    . .   .  .    .        .    .

Riff 3
e-|-----------14h17p14---(x3)|-------14----------16--(x2)|(x2)
B-|---------14--------14-----|-----14--14------14--14----|
G-|-------14------------14---|---14------14--14------14--|
C-|-----14----------------14-|-14----------14------------|
A-|---15---------------------|---------------------------|
c-|-16-----------------------|---------------------------|
(Starving and dying...)


Play Riff 1 x 6
then Riff 2 x 2
then Riff 3 x 2

Riff 2b (x2)
-|---------------|--------------|--------------|------|
-|---------------|--------------|--------------|------|
-|---------------|--------------|--------------|------|
-|---------------|--------------|--------------|------|
-|---4------8----|---4----7-6-7-|---4----8-4-6-|-7----|
-|-2-2--2-6-6--2-|-2-2--2-5-4-5-|-2-2--2-6-2-4-|-5----|
   .    . .    .   .    .         .    .

Riff 2c (x2)
-|-------------|--------------|--------------|------|
-|-------------|--------------|--------------|------|
-|-------------|--------------|--------------|------|
-|-------------|--------------|--------------|------|
-|-4-4-4-8-8-8-|---4----7-6-7-|---4----8-4-6-|-7----|
-|-2-2-2-6-6-6-|-2-2--2-5-4-5-|-2-2--2-6-2-4-|-5----|
   . . . . . .   .    .         .    .

Riff 4a (x2)
-|--------------------------------------|
-|--------------------------------------|
-|--------------------------------------|
-|--------------------------------------|
-|-(5)------(5)------(6)------(6)-------|
-|----(3)(2)---(3)(2)---(4)(3)---(4)(3)-|

|---------------------------------|
|---------------------------------|
|---------------------------------|
|---------------------------------|
|-(5)------(5)--------------------|
|----(3)(2)---(3)(2)-111111222222-|

Riff 4b (x2)
-|-------------------------|-------------------------|
-|-------------------------|-------------------------|
-|-------------------------|-------------------------|
-|-777---------777---------|-888---------888---------|
-|-555-555-444-555-555-444-|-666-666-555-666-666-555-|
-|-----333-222-----333-222-|-----444-333-----444-333-|
   ... ... ... ... ... ...   ... ... ... ... ... ...

|----------------------------------|
|----------------------------------|
|----------------------------------|
|-777---------777------------------|
|-555-555-444-555-555--------------|
|-----333-222-----333-111111222222-|
  ... ... ... ... ...

Play Riff 4a [under solo] (x2)
Play Riff 4b [under solo] (x2)

Rif 5 (x4)
-|-------------------------------------------------|
-|-------------------------------------------------|
-|-------------------------------------------------|
-|-------------------7-----------------------------|
-|-5-4-----7-5-4-----5-5-4-----4-5-7-7-7-7-7-7-7-7-|
-|-3-2-0-0-5-3-2-0-0---3-2-0-0-2-3-5-5-5-5-5-5-5-5-|
   . .       . .       . .

continue
|-------------------------------------------------|
|-------------------------------------------------|
|-------------------------------------------------|
|-------------------7-----------------------------|
|-5-4-----7-5-4-----5-5-4-----4-5-7-7-7-7-8-8-8-8-|
|-3-2-0-0-5-3-2-0-0---3-2-0-0-2-3-5-5-5-5-6-6-6-6-|
  . .       . .       . .

Riff 6 (x4)
-|----------------------|
-|----------------------|
-|----------------------|
-|----------------------|
-|--------------4-3-5-3-|
-|-211311211411-2-1-3-1-|
                . . . .
Rif 7 (x4)
-|--------------------------|
-|--------------------------|
-|--------------------------|
-|--------------------------|
-|-4-3-5-4-4-3-6-3--4-3-5-3-|
-|-2-1-3-1-2-1-4-1--2-1-3-1-|
                    . . . .
Play Riff 6 (x4)
Play Riff 7 (x4)

- GAME OVER -

  Visit MetalTabs.com for more metal tablature

bottom separator

Contact Us | Privacy Policy | Disclaimer | Legal Notice
Copyright © 2001-2014 MetalTabs.com. All Rights Reserved.