top separator

Home

Forum

FAQ

Contact Us

Link to Us

MetalTabs.com logo

Bands

0-9

A

B

C

D

E

F

G

H

I

J

K

L

M

N

O

P

Q

R

S

T

U

V

W

X

Y

Z

Iron Maiden - "Wasting Love" Guitar Tab

Plain Text Version
More Iron Maiden Tabs

Hits: 2582
Rated: 1.00 out of 5 (2 votes)
Updated: 2004-07-16 05:10:12

By:

DoomBR


#----------------------------------PLEASE NOTE---------------------------------#
#This file is the author's own work and represents their interpretation of the #
#song. You may only use this file for private study, scholarship, or research. #
#Unless specified otherwise, this is NOT an official tab from the band members.#
#------------------------------------------------------------------------------#

  Visit MetalTabs.com for more metal tablature
  
Band:  Iron Maiden
Album: Fear of the Dark
Song:  Wasting Love

Copyright (c)  Emi Records Ltd. 1991
Version 1.1 - July 15th, 2004

Transcribed By: Doom
Email:          doomsdm@hotmail.com


.  - palm mute           /  - slide up to
\  - slide down to       ~  - vibrato
h  - hammer on           b  - Bend
p  - pull off            Suffixes for bend
t  - tap                 f  - full bend    h - half bend
ph - pinched harmonic    q  - quarter bend t - tap bend
*  - see comment         ^  - Hold bend    r release bend
x  - Stuccatto           ~  - vibrato bend
,  - slight palm mute    () - ghost note, sustained note
"  - tremolo note        <> - Trill

Tunning: Standard (E A D G B E)

Intro Riff (Guitar 1)
|------------------------------------------|
|------------12b----12-10------------------|
|-9-11-12--------11-------12-11-12-11-9----|
|---------10----------------------------12-|
|------------------------------------------|
|------------------------------------------|

Intro Riff (Guitar 2)
|----------------------|
|----------------------|
|-9-99-5-55-7-77-------|
|-9-99-5-55-7-77-55-77-|
|-7-77-3-33-5-55-55-77-|
|----------------33-55-|

Main Riff
|-----------------------------------|
|---------------------------3-------|
|---------0-------------0-------0---|
|-----4-------4-------4---4---4---4-|
|---2---2---2---2---3---------------|
|-0---------------0-----------------|

Riff 1
|---------------------------------|
|---------1---------------3-------|
|-----0-------0-------0-------0---|
|---2---2---2---2---4---4---4---4-|
|-0---------------0---------------|
|---------------------------------|

Repeat Main Riff
|-----------------------------------|
|---------------------------3-------|
|---------0-------------0-------0---|
|-----4-------4-------4---4---4---4-|
|---2---2---2---2---3---------------|
|-0---------------0-----------------|

Chorus
|----------------------
|----------------------
|-9-99-5-55-7-77-------
|-9-99-5-55-7-77-55-77-
|-7-77-3-33-5-55-55-77-
|----------------33-55-

--------------------------|
--------------------------|
-9-99-5-55-7-77-----------|
-9-99-5-55-7-77-5555-7777-|
-7-77-3-33-5-55-5555-7777-|
----------------3333-5555-|

Riff 2
|-----------------0-|
|-----------------0-|
|-----0-----0-----0-|
|---4-----2-------2-|
|-5-----3-------2---|
|-------------0-----|

Repeat Main Riff
|-----------------------------------|
|---------------------------3-------|
|---------0-------------0-------0---|
|-----4-------4-------4---4---4---4-|
|---2---2---2---2---3---------------|
|-0---------------0-----------------|

Repeat Riff 1
|---------------------------------|
|---------1---------------3-------|
|-----0-------0-------0-------0---|
|---2---2---2---2---4---4---4---4-|
|-0---------------0---------------|
|---------------------------------|

Repeat Main Riff
|-----------------------------------|
|---------------------------3-------|
|---------0-------------0-------0---|
|-----4-------4-------4---4---4---4-|
|---2---2---2---2---3---------------|
|-0---------------0-----------------|

Chorus
|----------------------
|----------------------
|-9-99-5-55-7-77-------
|-9-99-5-55-7-77-55-77-
|-7-77-3-33-5-55-55-77-
|----------------33-55-

--------------------------|
--------------------------|
-9-99-5-55-7-77-----------|
-9-99-5-55-7-77-5555-7777-|
-7-77-3-33-5-55-5555-7777-|
----------------3333-5555-|

Repeat Riff 2
|-----------------0-|
|-----------------0-|
|-----0-----0-----0-|
|---4-----2-------2-|
|-5-----3-------2---|
|-------------0-----|

Riff Before Solo (Guitar 2)
|------------------0-|
|------------------0-| NOTE: Use palm mute on this riff. Sounds better on
|---------0------0-0-|       acoustic guitar.
|-----4---4--------4-|
|-----------22-23----|
|-0-0---0------------|

Solo
|-8------------------------------------15----14----12----12~~~--------------
|---11-9P8H9~-----------------------12----12----12----12-------15-14-12-----
|-------------9-7-----------------------------------------------------------
|-----------------10-9-10-9-7----7------------------------------------------
|-----------------------------11--------------------------------------------
|---------------------------------------------------------------------------

----12----14----15----14----15----17----19~~~---19-17-15-14-15~~-----------
-12----12----12----12----12----12----12------------------------------------
---------------------------------------------------------------------------
---------------------------------------------------------------------------
---------------------------------------------------------------------------
---------------------------------------------------------------------------

-19-17-15-14-------19-17-15-14-15-14---------------------15-14-12----12----
-------------15~~--------------------17-15-17~~-15~~--12----------15----15-
---------------------------------------------------------------------------
---------------------------------------------------------------------------
---------------------------------------------------------------------------
---------------------------------------------------------------------------

--------------------12----14----15----17-19~~--17~~---|
-13-12-13-12-----12----12----12----12-----------------|
-------------14---------------------------------------|
------------------------------------------------------|
------------------------------------------------------|
------------------------------------------------------|

Chorus
|----------------------
|----------------------
|-9-99-5-55-7-77-------
|-9-99-5-55-7-77-55-77-
|-7-77-3-33-5-55-55-77-
|----------------33-55-

--------------------------|
--------------------------|
-9-99-5-55-7-77-----------|
-9-99-5-55-7-77-5555-7777-|
-7-77-3-33-5-55-5555-7777-|
----------------3333-5555-|

Solo at Chorus (Guitar 2)
|--17b1917b19-17b19-17b19-17b19rb17-15------------15------------
|---------------------------------------17\--15b16---15b16rb15---
|----------------------------------------------------------------
|----------------------------------------------------------------
|----------------------------------------------------------------
|----------------------------------------------------------------

---------------------------------------------------------|
---------------------------------------------------------|
-14b16rb16-12----12^--12-14b16-14p12----14----12-11-9--7-|
--------------14----14---------------14----14------------|
---------------------------------------------------------|
---------------------------------------------------------|

Outro
|-----------------0-|
|-----------------0-|
|-----0-----0-----0-|
|---4-----2-------2-|
|-5-----3-------2-2-|
|-------------0---0-|

  Visit MetalTabs.com for more metal tablature

bottom separator

Contact Us | Privacy Policy | Disclaimer
Copyright © 2001-2014 MetalTabs.com. All Rights Reserved.