top separator

Home

Forum

What's New

Submit a Tab

FAQ

Links

Contact Us

Link to Us

MetalTabs.com logo

Bands

0-9

A

B

C

D

E

F

G

H

I

J

K

L

M

N

O

P

Q

R

S

T

U

V

W

X

Y

Z

Search

What

Where
 

As I Lay Dying - "Falling Upon Deaf Ears" Guitar Tab

Plain Text Version
More As I Lay Dying Tabs

Hits: 10525
Rated: 4.82 out of 5 (11 votes)
Updated: 2004-07-13 04:12:39

 

By:

Sqweeky

sendpm.gif

email.gif

Important note
This tab is available online because we obtained explicit permission from As I Lay Dying or their label.


#----------------------------------PLEASE NOTE---------------------------------#
#This file is the author's own work and represents their interpretation of the #
#song. You may only use this file for private study, scholarship, or research. #
#Unless specified otherwise, this is NOT an official tab from the band members.#
#------------------------------------------------------------------------------#

  Visit MetalTabs.com for more metal tablature
  
Band:  As I Lay Dying
Album: Frail Words Collapse
Song:  Falling Upon Deaf Ears

Copyright (c)  Metal Blade Records 2003
Version 1.0 - 7-12-04

Transcribed By: Sqweeky
Email:          Blindside831@aol.com


.  - palm mute           /  - slide up to
\  - slide down to       ~  - vibrato
h  - hammer on           b  - Bend
p  - pull off            Suffixes for bend
t  - tap                 f  - full bend    h - half bend
ph - pinched harmonic    q  - quarter bend t - tap bend
*  - see comment         ^  - Hold bend    r release bend
x  - Stuccatto           ~  - vibrato bend
,  - slight palm mute    () - ghost note, sustained note
"  - tremolo note        <> - Trill

Tunning C G C F A D

Intro

Gtr.1
|------------------------|
|------------------------|
|------------------------|
|------------------------|
|-0~--0~--0~~~~~~~~~-----|
|-0~--0~--0~~~~~~~~~-----|

Gtr.2
|------------------------------------------------------------------------------|
|------------------------------------------------------------------------------|
|------------------------------------------------------------------------------|
|------------------------------------------------------------------------------|
|-0~--0~--8-7-------------8-7--------------8-7-------------8-7-5-0-10-8-7-0----|
|-0~--0~------0-0-8-7-0-0-----0-0-8-7-5-0------0-0-8-7-0-0---------------------|
PM.           . .     . .     . .              . .     . .

Verse

Gtrs.1&2
|-------------------------------------------------------------------------|
|-------------------------------------------------------------------------|
|-------------------------------------------------------------------------|
|-------------------------------------------------------------------------|
|--8-7-------------8-7----------------8-7-------------8-7-5-0-10-8-7-0----|
|------0-0-8-7-0-0-----0-0-8888-5555------0-0-8-7-0-0---------------------|
PM.    . .     . .     . . .... ....      . .     . .

Gtrs.1&2
|-------------------------------------------|
|-------------------------------------------|
|-------------------------------------------|
|-------------------------------------------|
|-8-7-------------8-7-----------------------|
|-----0-0-8-7-0-0-----0-0-8888-5555---------|
PM    . .     . .     . . .... ....

Gtrs.1&2
|-----------------------------------------------------------------|
|-----------3-----------3-----------3-----------3-----------------|
|-----------7-----------7-----------7-----------7-----------------|
|-----------0-----------0-----------0-----------0-----------------|
|-0-0-0-0-0---0-0-0-0-0---0-0-0-0-0---0-0-0-0-0-------------------|
|-0-0-0-0-0---0-0-0-0-0---0-0-0-0-0---0-0-0-0-0-------------------|

Gtr.2 (Gtr.1 continues playing above riff)
|----------------------|
|----------------------|
|----10/12-9~--9/10-7--|
|-----X----X---X----X--|
|-8~--8/10-7~--7/8--5--|
|-8~-------------------|

Gtrs.1&2
|------------|
|------------|
|------------|
|------------|
|-8~-10~-7~--|
|-8~-10~-7~--|

Gtr.1
|-----------------------|
|-----------------------|
|-----------------------|
|-----------------------|
|-0~--5~--8~--7~--------|
|-0~--5~--8~--7~--------|

Gtr.2
|-----------------------------------------|
|-----------------------------------------|
|-----------------------------------------|
|-----------------------------------------|
|-----888877778888------------------------|
|-----------------------------------------|

Guitar Solo

Gtr.1
|------------------------0------------------------------------------|
|-5h6p5-----8-6-5-6--5-----------5h6p5-----8-6-5-8/10-8-6-8-6-5-6---|
|-------7-5------------7---7-5~~-------7-5--------------------------|
|-------------------------------------------------------------------|
|-------------------------------------------------------------------|
|-------------------------------------------------------------------|

|------------------------0------------------------------------------------|
|-5h6p5-----8-6-5-6--5----------------------------------------------------|
|-------7-5------------7---7-5~~--------------------------------------ph--|
|--------------------------------------0-3-5-------0-3-5-------0-3-5--5---|
|--------------------------------0-3-5-------0-3-5-------0-3-5------------|
|-------------------------------------------------------------------------|


End

  Visit MetalTabs.com for more metal tablature

bottom separator

Contact Us | Privacy Policy | Disclaimer | Legal Notice
Copyright © 2001-2014 MetalTabs.com. All Rights Reserved.