top separator

Home

Forum

FAQ

Contact Us

Link to Us

MetalTabs.com logo

Bands

0-9

A

B

C

D

E

F

G

H

I

J

K

L

M

N

O

P

Q

R

S

T

U

V

W

X

Y

Z

Iron Maiden - "Dream Of Mirrors" Guitar Tab

Plain Text Version
More Iron Maiden Tabs

Hits: 5157
Rated: 5.00 out of 5 (2 votes)
Updated: 2004-07-16 05:17:23

By:

Lobotomy_victim


#----------------------------------PLEASE NOTE---------------------------------#
#This file is the author's own work and represents their interpretation of the #
#song. You may only use this file for private study, scholarship, or research. #
#Unless specified otherwise, this is NOT an official tab from the band members.#
#------------------------------------------------------------------------------#

  Visit MetalTabs.com for more metal tablature
  
Band:  Iron Maiden
Album: Brave New World
Song:  Dream of Mirrors

Copyright (c)  EMI records 2000
Version 1.0 - (2000)

Transcribed By: Adam Young
Email:          The_burninator05@hotmail.com


.  - palm mute           /  - slide up to
\  - slide down to       ~  - vibrato
h  - hammer on           b  - Bend
p  - pull off            Suffixes for bend
t  - tap                 f  - full bend    h - half bend
ph - pinched harmonic    q  - quarter bend t - tap bend
*  - see comment         ^  - Hold bend    r release bend
x  - Stuccatto           b~ - vibrato bend
,  - slight palm mute    () - ghost note, sustained note
"  - tremolo note        <> - Trill

|-----------------|
|*---------------*|
|-----------------| repeat
|-----------------|  bar
|*---------------*|
|-----------------|
Tuning E A D G B E
                                                                 Last time
  Intro X2  (distorted)                                            only
|------------------------------------------------------------------|---|
|------------------------------------------------------------------|---|
|-2-2--4-5-4------2-2--4-5-4---7~--2-2-4-5-4------------------5-4--|-2-|
|-2-2--------5----2-2--------5-----2-2-------5------------3-2------|-2-|
|-0-0----------5--0-0--------------0-0---------5--3-2-3-2----------|-0-|
|------------------------------------------------------------------|---|
           X2           2nd time
|-----------------------------------------------------|
|-----------------------|-------|---------------------|
|*---------9-9h10p9-7-9-|-10-12-|--------77h8p7-5-7-*|
|---7-7-7---------------|-------|-5-5-5---------------|
|-----------------------|-------|---------------------|
|*----------------------|-------|--------------------*|


guitar1-a lot of times (clean)
|-------------------------------------|
|--5h6p5----3h5p5----1h3p1----0h1p0---|
|--------7--------5--------2--------0-|
|-------------------------------------|
|-------------------------------------|
|-------------------------------------|
guitar2-slow gallop(clean)
|--------------------------------------|
|--------------------------------------|
|--------------------------------------|
|--------------------------------------|
|-0---0-0-0--0-0-0--0-0-0--0-0-0--0-0-0|
|--------------------------------------|
guitar3-throw in an Fm7#11 every once in a while (up stroke)
Fm7#11
|--0--|
|--0--|
|--2--|
|--3--|
|--3--|
|--1--|

    Fm7#11               Dmaj            F5                   D5
|-0-------------------------------------------------------------------|
|-0----------------------3-------3------------------------------------|
|-2--------------------2---2---2---2-------10---------10--------7-----|
|-3--3-------3-------0-------0----------10----10---10----10---7---7---|
|-3----3---3---3----------------------8----------8----------5-------5-|
|-1------1-------1----------------------------------------------------|
               F5         D5
|--------------------------------------------------------------------|
|--------------------------------------------------------------------|
|---7---------10---------10---------7-------7-------10---------10----|
|-7---7----10----10---10----10----7---7---7------10----10---10----10-|
|--------8----------8-----------5-------5------8----------8----------|
|--------------------------------------------------------------------|

|------------------|
|------------------|
|------------------|
|-----5----5---5---|
|---5---5----5---5-|
|-3----------------|
             X3
|--------------------------------|------------------------------|
|--------------------------------|------------------------------|
|-----2---5---4--------5---------|-----2---5---4----------------|
|---2---2---2---2----5--------5--|---2---2---2---2------3-----5-|
|-0----------------3--------5----|-0------------------3-----5---|
|-------------------------3------|------------------1-----3-----|

guitar1-a lot of times (clean)
|-------------------------------------|
|--5h6p5----3h5p5----1h3p1----0h1p0---|
|--------7--------5--------2--------0-|
|-------------------------------------|
|-------------------------------------|
|-------------------------------------|
guitar2-slow gallop(clean)
|--------------------------------------|
|--------------------------------------|
|--------------------------------------|
|--------------------------------------|
|-0---0-0-0--0-0-0--0-0-0--0-0-0--0-0-0|
|--------------------------------------|

    F5        X3       D5                 F5               G5
|--------------------------------|-------------------------------|
|--------------------------------|-------------------------------|
|-----------------7-7-7-7-7-7-7-7|-------------------------------|distorted
|-3-3-3-3-3-3-3-3-7-7-7-7-7-7-7-7|-3-3-3-3-3-3-3-5-5-5-5-5-5-5-5-|
|-3-3-3-3-3-3-3-3-5-5-5-5-5-5-5-5|-3-3-3-3-3-3-3-5-5-5-5-5-5-5-5-|
|-1-1-1-1-1-1-1-1----------------|-1-1-1-1-1-1-1-3-3-3-3-3-3-3-3-|

chorus(distorted)X3
|----------------------------|-----------------------------------|---|
|*---------------------------|----------------------------------*|---|
|--2-2-2-2-2-2-2-2-----------|-----------------------------------|-2-|
|--2-2-2-2-2-2-2-2-3-3-5-5-5-|-3-3-3-3-3-3-3-3-5-5-5-5-5-5-5-5---|-2-|
|*-0-0-0-0-0-0-0-0-3-3-5-5-5-|-3-3-3-3-3-3-3-3-5-5-5-5-5-5-5-5--*|-0-|
|------------------1-1-3-3-3-|-1-1-1-1-1-1-1-1-3-3-3-3-3-3-3-3---|---|
              X3                                                   *let ring
|--------------------------------|------------------------------|
|--------------------------------|------------------------------|
|-----2---5---4--------5---------|-----2---5---4----------------|
|---2---2---2---2----5--------5--|---2---2---2---2------3-----5-|
|-0----------------3--------5----|-0------------------3-----5---|
|-------------------------3------|------------------1-----3-----|

guitar1-a lot of times (clean)
|-------------------------------------|
|--5h6p5----3h5p5----1h3p1----0h1p0---|
|--------7--------5--------2--------0-|
|-------------------------------------|
|-------------------------------------|
|-------------------------------------|
guitar2-slow gallop(clean)
|--------------------------------------|
|--------------------------------------|
|--------------------------------------|
|--------------------------------------|
|-0---0-0-0--0-0-0--0-0-0--0-0-0--0-0-0|
|--------------------------------------|

  [chorus]

Tempo speeds up
      X2                   X2
|---------------------|-------------------|
|---------------------|-------------------|
|--4h5p4p2-4-4-2---2--|-2h3p2p0-2-2-0---0-|Bridge
|----------------2----|---------------0---|
|---------------------|-------------------|
|---------------------|-------------------|

fast gallop
|----------------------------------|
|----------------------------------|
|----------------------------------|
|----------------------------------|
|-7-777-777-777-777-777-777-777-77-|
|-5-555-555-555-555-555-555-555-55-|

|----------------------------------|
|----------------------------------|
|----------------------------------|
|----------------------------------|
|-5-555-555-555-555-555-555-555-55-|
|-3-333-333-333-333-333-333-333-33-|

|----------------------------------|
|----------------------------------|
|----------------------------------|
|----------------------------------|
|-7-777-777-777-777-777-777-777-77-|
|-5-555-555-555-555-555-555-555-55-|

|----------------------------------|
|----------------------------------|
|----------------------------------|
|----------------------------------|
|-3-333-333-333-33-5-555-555-555-5-|
|-1-111-111-111-11-3-333-333-333-3-|

Bridge X2
                  X3
|-------------------------------------|-----------------------|
|-------------------------------------|-----------------------|
|-2-----------------------------------|-----------------------|
|-2let ring--3-----------5------------|--3----------5---------|
|-0----------3-let ring--5-let ring---|--3-let ring-5-let ring|
|------------1-----------3------------|--1----------3---------|

            X3
|-------------------------|----------------|
|-------------------------|----------------|
|-2h4p2p0h2--999-777-55-4-|-2h4p2p0--4h5p4-|
|-------------------------|----------------|
|-------------------------|----------------|
|-------------------------|----------------|

Solo
|------------------------------------------------------12"-10---------|
|--7b9~-*2-4-5-4-2*-*4-5-7-5-4*-*5-7-8-7-5*--10b11-12---------12h13-12|
|---------------------------------------------------------------------|
|---------------------------------------------------------------------|
|---------------------------------------------------------------------|
|---------------------------------------------------------------------|
*Very fast repeatedly   thats all i have for the solo right now :p

            X3
|-------------------------|----------------|
|-------------------------|----------------|
|-2h4p2p0h2--999-777-55-4-|-2h4p2p0--4h5p4-|
|-------------------------|----------------|
|-------------------------|----------------|
|-------------------------|----------------|

tempo slows down again

 [Chorus]
             X3
|--------------------------------|------------------------------|
|--------------------------------|------------------------------|
|-----2---5---4--------5---------|-----2---5---4----------------|
|---2---2---2---2----5--------5--|---2---2---2---2------3-----5-|
|-0----------------3--------5----|-0------------------3-----5---|
|-------------------------3------|------------------1-----3-----|

Outro
guitar1
|---------------------------------------|
|----5h6p5----------3----5h6p5--------3-|
|-----------7-------------------7-------|
|---------------------------------------|
|---------------------------------------|
|---------------------------------------|
guitar2
|--------------------------------------|
|--------------------------------------|
|--------------------------------------|
|--------------------------------------|
|-0--0-------0--0-----0--0--------0--0-|
|--------------------------------------|

  Visit MetalTabs.com for more metal tablature

bottom separator

Contact Us | Privacy Policy | Disclaimer
Copyright © 2001-2014 MetalTabs.com. All Rights Reserved.