top separator

Home

Forum

What's New

Submit a Tab

FAQ

Links

Contact Us

Link to Us

MetalTabs.com logo

Bands

0-9

A

B

C

D

E

F

G

H

I

J

K

L

M

N

O

P

Q

R

S

T

U

V

W

X

Y

Z

Search

What

Where
 

Siebenbürgen - "Majesties Infernal" Guitar Tab

Plain Text Version
More Siebenbürgen Tabs

Hits: 3776
Rated: 4.95 out of 5 (20 votes)
Updated: 2004-07-11 09:27:09

 

By:

sendpm.gif

email.gif

Important note
This tab is available online because we obtained explicit permission from Siebenbürgen or their label.


#----------------------------------PLEASE NOTE---------------------------------#
#This file is the author's own work and represents their interpretation of the #
#song. You may only use this file for private study, scholarship, or research. #
#Unless specified otherwise, this is NOT an official tab from the band members.#
#------------------------------------------------------------------------------#

  Visit MetalTabs.com for more metal tablature
  
                              MAJESTIES INFERNAL
                          As recorded by Siebenbürgen
                         (From the 1999 Album DELICTUM)


                  Lord John VI. Lustrous & Bryngelsson/Ekström
                   Calendonia@seznam.cz

Gtr I (E A D G B E) - 'Guitar I.'
Gtr II (E A D G B E) - 'Guitar II.'
Gtr III (E A D G B E) - 'Choir'
Gtr IV (E A D G B E) - 'Keyboard or Overdrive'

                Intro
  Q=170
 4/4
  Gtr I
          TP     TP TP TP TP   TP TP TP TP   TP TP TP TP   TP TP TP TP
  H.      Q      Q  Q  Q  Q    Q  Q  Q  Q    Q  Q  Q  Q    Q  Q  Q  Q
|------------||--------------|-------------|-------------|---------------|
|------------||o-------------|-------------|-------------|---------------|
|------------||--------------|-------------|-------------|---------------|
|------------||--------------|-------------|-------------|-5-------------|
|---------6--||o----5--6-----|----5--6-----|----5--6-----|----6--5-------|
|---------4--||--3--------4--|-3--------4--|-3--------4--|----------4----|
|
| Gtr II
|         TP     TP TP TP TP   TP TP TP TP   TP TP TP TP   TP TP TP TP
| H.      Q      Q  Q  Q  Q    Q  Q  Q  Q    Q  Q  Q  Q    Q  Q  Q  Q
|------------||--------------|-------------|-------------|---------------|
|------------||o-------------|-------------|-------------|---------------|
|------------||--------------|-------------|-------------|---------------|
|------------||--------------|-------------|-------------|-5--5----------|
|---------6--||o-5--5--5--6--|-5--5--5--6--|-5--5--5--6--|-6--6--5--5----|
|---------4--||--3--3--3--4--|-3--3--3--4--|-3--3--3--4--|-------6--6----|


  TP TP TP TP   TP TP TP TP   TP TP TP TP   TP TP TP TP
  Q  Q  Q  Q    Q  Q  Q  Q    Q  Q  Q  Q    Q  Q  Q  Q
|-------------|-------------|-------------|--------------||
|-------------|-------------|-------------|-------------o||
|-------------|-------------|-------------|--------------||
|-------------|-------------|-------------|-5------------||
|----5--6-----|----5--6-----|----5--6-----|----6--5--5--o||
|-3--------4--|-3--------4--|-3--------4--|--------------||
|
| TP TP TP TP   TP TP TP TP   TP TP TP TP   TP TP TP TP
| Q  Q  Q  Q    Q  Q  Q  Q    Q  Q  Q  Q    Q  Q  Q  Q
|-------------|-------------|-------------|--------------||
|-------------|-------------|-------------|-------------o||
|-------------|-------------|-------------|--------------||
|-------------|-------------|-------------|-5--5---------||
|-5--5--5--6--|-5--5--5--6--|-5--5--5--6--|-6--6--5--5--o||
|-3--3--3--4--|-3--3--3--4--|-3--3--3--4--|-------6--6---||


    TPTPTPTPTPTPTPTP  TPTPTPTPTPTPTPTP
    E E E E E E E E   E E E E E E E E
||------------------|-----------------|
||o-----------------|-----------------|
||------------------|-----------------|
||--5-5-5-5-5-5-6-6-|-3-3-3-3-3-3-4-4-|
||o-3-3-3-3-3-3-3-3-|-1-1-1-1-1-1-1-1-|
||------------------|-----------------|
|
|   TP  TP  TP  TP    TP  TP  TP  TP
|   Q   Q   Q   Q     Q   Q   Q   Q
||------------------|-----------------|
||o-----------------|-----------------|
||--------------5---|-------------3---|
||----------5-------|---------3-------|
||o-3---6-----------|-1---4-----------|
||------------------|-----------------|


  TPTPTPTPTPTPTPTP
  E E E E E E E E   E S S S S E S S S S Q
|-----------------|------------------------||
|-----------------|-----------------------o||
|-----------------|------------------------||
|-5-5-5-5-5-5-6-6-|-5---------3---------3--||
|-3-3-3-3-3-3-3-3-|-6-6-6-6-6-5-5-5-5-5-5-o||
|-----------------|------------------------||
|
| TP  TP  TP  TP    TP  TP  TP  TP
| Q   Q   Q   Q     Q   Q   Q   Q
|-----------------|------------------------||
|-----------------|-----------------------o||
|-------------5---|------------------------||
|---------5-------|-----5---3--------------||
|-3---6-----------|-6-----------5---------o||
|-----------------|------------------------||


    TP TP TP TP   TP TP TP TP   TP TP TP TP   TP TP TP TP
    Q  Q  Q  Q    Q  Q  Q  Q    Q  Q  Q  Q    Q  Q  Q  Q
||--------------|-------------|-------------|--------------|
||o-------------|-------------|-------------|--------------|
||--------------|-------------|-------------|--------------|
||--------------|-------------|-------------|-5------------|
||o----5--6-----|----5--6-----|----5--6-----|----6--5------|
||--3--------4--|-3--------4--|-3--------4--|----------4---|
|
|   TP TP TP TP   TP TP TP TP   TP TP TP TP   TP TP TP TP
|   Q  Q  Q  Q    Q  Q  Q  Q    Q  Q  Q  Q    Q  Q  Q  Q
||--------------|-------------|-------------|--------------|
||o-------------|-------------|-------------|--------------|
||--------------|-------------|-------------|--------------|
||--------------|-------------|-------------|-5--5---------|
||o-5--5--5--6--|-5--5--5--6--|-5--5--5--6--|-6--6--5--5---|
||--3--3--3--4--|-3--3--3--4--|-3--3--3--4--|-------6--6---|


  TP TP TP TP   TP TP TP TP   TP TP TP TP   TP TP TP TP
  Q  Q  Q  Q    Q  Q  Q  Q    Q  Q  Q  Q    Q  Q  Q  Q
|-------------|-------------|-------------|--------------||
|-------------|-------------|-------------|-------------o||
|-------------|-------------|-------------|--------------||
|-------------|-------------|-------------|-5------------||
|----5--6-----|----5--6-----|----5--6-----|----6--5--5--o||
|-3--------4--|-3--------4--|-3--------4--|--------------||
|
| TP TP TP TP   TP TP TP TP   TP TP TP TP   TP TP TP TP
| Q  Q  Q  Q    Q  Q  Q  Q    Q  Q  Q  Q    Q  Q  Q  Q
|-------------|-------------|-------------|--------------||
|-------------|-------------|-------------|-------------o||
|-------------|-------------|-------------|--------------||
|-------------|-------------|-------------|-5--5---------||
|-5--5--5--6--|-5--5--5--6--|-5--5--5--6--|-6--6--5--5--o||
|-3--3--3--4--|-3--3--3--4--|-3--3--3--4--|-------6--6---||


    TPTPTPTPTPTPTPTP  TPTPTPTPTPTPTPTP
    E E E E E E E E   E E E E E E E E
||------------------|-----------------|
||o-----------------|-----------------|
||------------------|-----------------|
||--5-5-5-5-5-5-6-6-|-3-3-3-3-3-3-4-4-|
||o-3-3-3-3-3-3-3-3-|-1-1-1-1-1-1-1-1-|
||------------------|-----------------|
|
|   TP  TP  TP  TP    TP  TP  TP  TP
|   Q   Q   Q   Q     Q   Q   Q   Q
||------------------|-----------------|
||o-----------------|-----------------|
||--------------5---|-------------3---|
||----------5-------|---------3-------|
||o-3---6-----------|-1---4-----------|
||------------------|-----------------|


  TPTPTPTPTPTPTPTP
  E E E E E E E E   E S S S S E S S S S Q
|-----------------|--------------------------||
|-----------------|-------------------------o||
|-----------------|--------------------------||
|-5-5-5-5-5-5-6-6-|-5---------3---------3----||
|-3-3-3-3-3-3-3-3-|-6-6-6-6-6-5-5-5-5-5-5---o||
|-----------------|--------------------------||
|
| TP  TP  TP  TP    TP    TP    TP      TP
| Q   Q   Q   Q     Q     Q     Q       Q
|-----------------|--------------------------||
|-----------------|-------------------------o||
|-------------5---|--------------------------||
|---------5-------|-------5-----3------------||
|-3---6-----------|-6-------------------5---o||
|-----------------|--------------------------||


    TPTPTPTPTPTPTPTP  TPTPTPTPTPTPTPTP  TPTPTPTPTPTPTPTP  TPTPTPTPTPTPTPTP
    E E E E E E E E   E E E E E E E E   E E E E E E E E   E E E E E E E E
||------------------|-----------------|-----------------|------------------|
||o-----------------|-----------------|-----------------|------------------|
||------------------|-----------------|-----------------|------------------|
||------------------|-5-5-5-5---------|-----------------|------------------|
||o-3-3-3-3-3-3-3-3-|---------6-6-6-6-|-----------------|-5-5-5-5-6-6-6-6--|
||------------------|-----------------|-3-3-3-3-3-3-3-3-|------------------|
|
|   TPTPTPTPTPTPTPTP  TPTPTPTPTPTPTPTP  TPTPTPTPTPTPTPTP  TPTPTPTPTPTPTPTP
|   E E E E E E E E   E E E E E E E E   E E E E E E E E   E E E E E E E E
||------------------|-----------------|-----------------|------------------|
||o-----------------|-----------------|-----------------|------------------|
||------------------|-----------------|-----------------|------------------|
||--5-5-5-5-5-5-5-5-|-5-5-5-5-5-5-5-5-|-----------------|------------------|
||o-3-3-3-3-3-3-3-3-|-3-3-3-3-3-3-3-3-|-5-5-5-5-5-5-5-5-|-5-5-5-5-5-5-5-5--|
||------------------|-----------------|-3-3-3-3-3-3-3-3-|-3-3-3-3-3-3-3-3--|


  TPTPTPTPTPTPTPTP  TPTPTPTPTPTPTPTP  TPTPTPTPTPTPTPTP  TPTPTPTPTPTPTPTP
  E E E E E E E E   E E E E E E E E   E E E E E E E E   E E E E E E E E
|-----------------|-----------------|-----------------|------------------||
|-----------------|-----------------|-----------------|-----------------o||
|-----------------|-----------------|-----------------|------------------||
|-----------------|-5-5-5-5---------|-----------------|-3-3--------------||
|-3-3-3-3-3-3-3-3-|---------6-6-6-6-|-5-5-5-5-5-5-6-6-|-----6-6-5-5-6-6-o||
|-----------------|-----------------|-----------------|------------------||
|
| TPTPTPTPTPTPTPTP  TPTPTPTPTPTPTPTP  TPTPTPTPTPTPTPTP  TPTPTPTPTPTPTPTP
| E E E E E E E E   E E E E E E E E   E E E E E E E E   E E E E E E E E
|-----------------|-----------------|-----------------|------------------||
|-----------------|-----------------|-----------------|-----------------o||
|-----------------|-----------------|-----------------|------------------||
|-5-5-5-5-5-5-5-5-|-5-5-3-3-----5-5-|-----------------|------------------||
|-3-3-3-3-3-3-3-3-|---------6-6-----|-5-5-5-5-5-5-5-5-|-6-6-6-6-5-5-----o||
|-----------------|-----------------|-3-3-3-3-3-3-----|-------------6-6--||


    E H.           E   E H.           E
||-------------------|------------------|
||o------------------|------------------|
||-------------------|------------------|
||-----------------3-|-3--------------5-|
||o-3--------------4-|-1--------------3-|
||--1----------------|------------------|
|
|   E E  E E E E E E   E E  E E E E E E
||-------------------|------------------|
||o------------------|------------------|
||----5--6-3-5-6-5---|------------------|
||--3--------------6-|---5--6-3-5-6-5---|
||o------------------|-3--------------6-|
||-------------------|------------------|


  E H.           E   E Q.     Q     Q
|------------------|-------------------||
|------------------|------------------o||
|------------------|-------------------||
|-6--------------6-|-5-----------------||
|-4--------------4-|-3--------6-----5-o||
|------------------|----------4-----3--||
|
| E E  E E E E E E   E E  E E Q     Q
|------------------|-------------------||
|------------------|------------------o||
|---5--6-3-5-6-5---|-5-6--8-6-5tr6-----||
|-3--------------6-|----------------6--||
|------------------|------------------o||
|------------------|-------------------||


      PM--|   PM--|     PM--|   PM--|     PM--|   PM--|     PM--|
    E E E E E E E E   E E E E E E E E   E E E E E E E E   E E E E Q     Q
||------------------|-----------------|-----------------|--------------------||
||o-----------------|-----------------|-----------------|-------------------o||
||------------------|-----------------|-----------------|--------------------||
||----------5-5-5-5-|-3-3-3-3-3-3-3-3-|-5-5-5-5-6-6-6-6-|-5-5-5-5------------||
||o-3-3-3-3-3-3-3-3-|-4-4-4-4-1-1-1-1-|-3-3-3-3-4-4-4-4-|-3-3-3-3-6-----5---o||
||--1-1-1-1---------|-----------------|-----------------|---------4-----3----||
|
|   E E E E E E E E   E E E E E E E E   E E E E E E E E   E E E E Q     Q
||------------------|-----------------|-----------------|--------------------||
||o-----------------|-----------------|-----------------|-------------------o||
||----5-6-3-5-6-5---|-----------------|---5-6-3-5-6-5---|-5-6-8-6-5tr6-------||
||--3-------------6-|---5-6-3-5-6-5---|-3-------------6-|---------------6----||
||o-----------------|-3-------------6-|-----------------|-------------------o||
||------------------|-----------------|-----------------|--------------------||


    TPTPTPTPTPTPTPTP  TPTPTPTPTPTPTPTP  TPTPTPTPTPTPTPTP  TPTPTPTPTP    TP
    E E E E E E E E   E E E E E E E E   E E E E E E E E   E E E E Q     Q
||------------------|-----------------|-----------------|--------------------||
||o-----------------|-----------------|-----------------|-------------------o||
||------------------|-----------------|-----------------|--------------------||
||----------5-5-5-5-|-3-3-3-3-3-3-3-3-|-5-5-5-5-6-6-6-6-|-5-5-5-5------------||
||o-3-3-3-3-3-3-3-3-|-4-4-4-4-1-1-1-1-|-3-3-3-3-4-4-4-4-|-3-3-3-3-6-----5---o||
||--1-1-1-1---------|-----------------|-----------------|---------4-----3----||
|
|   E E E E E E E E   E E E E E E E E   E E E E E E E E   E E E E Q     Q
||------------------|-----------------|-----------------|--------------------||
||o-----------------|-----------------|-----------------|-------------------o||
||----5-6-3-5-6-5---|-----------------|---5-6-3-5-6-5---|-5-6-8-6-5tr6-------||
||--3-------------6-|---5-6-3-5-6-5---|-3-------------6-|---------------6----||
||o-----------------|-3-------------6-|-----------------|-------------------o||
||------------------|-----------------|-----------------|--------------------||


  S S S S S S S S S S S S S S S S   S S S S S S S S S S S S S S S S
|---------------------------------|---------------------------------|
|---------------------------------|---------------------------------|
|---------------------------------|---------------------------------|
|---------------------------------|---------------------------------|
|---------------------------------|---------------------------------|
|-1-1-1-1-1-1-1-1-1-1-1-1-1-1-1-1-|-1-1-1-1-1-1-1-1-1-1-1-1-1-1-1-1-|
|
| S S S S S S S S S S S S S S S S   S S S S S S S S S S S S S S S S
|---------------------------------|---------------------------------|
|---------------------------------|---------------------------------|
|---------------------------------|---------------------------------|
|---------------------------------|---------------------------------|
|-----3-3-4-4-1-1-3-3-4-4-3-3-----|-----3-3-4-4-1-1-3-3-4-4-3-3-----|
|-1-1-------------------------4-3-|-1-1-------------------------4-3-|


  S S S S S S S S S S S S S S S S   S S S S S S S S S S S S S S S S
|---------------------------------|---------------------------------|
|---------------------------------|---------------------------------|
|---------------------------------|---------------------------------|
|---------------------------------|---------------------------------|
|---------------------------------|---------------------------------|
|-4-4-4-4-4-4-4-4-4-4-4-4-4-4-4-4-|-4-4-4-4-4-4-4-4-4-4-4-4-4-4-4-4-|
|
| S S S S S S S S S S S S S S S S   S S S S S S S S S S S S S S S S
|---------------------------------|---------------------------------|
|---------------------------------|---------------------------------|
|---------------------------------|---------------------------------|
|---------------------------------|---------------------------------|
|-----3-3-4-4-1-1-3-3-4-4-3-3-----|-----3-3-4-4-1-1-3-3-4-4-3-3-----|
|-1-1-------------------------4-3-|-1-1-------------------------4-3-|


  S S S S S S S S S S S S S S S S   S S S S S S S S S S S S S S S S
|---------------------------------|-----------------------------------|
|---------------------------------|-----------------------------------|
|---------------------------------|-----------------------------------|
|---------------------------------|-----------------------------------|
|---------------------------------|-----------------------------------|
|-1-1-1-1-1-1-1-1-1-1-1-1-1-1-1-1-|-1-1-1-1-1-1-1-1-1-1-1-1-1-1-1-1---|
|
| S S S S S S S S S S S S S S S S   S S S S S S S S S S S S S S S S
|---------------------------------|-----------------------------------|
|---------------------------------|-----------------------------------|
|---------------------------------|-----------------------------------|
|-----3-3-4-4-1-1-3-3-4-4-3-3-----|-----3-3-4-4-1-1-3-3-4-4-3-3-------|
|-1-1-------------------------4-3-|-1-1-------------------------4-3---|
|---------------------------------|-----------------------------------|


      PM----|     PM----|     PM|       PM----|     PM----|     PM|
  E   S S S S E   S S S S E   S S   E   S S S S E   S S S S E   S S
|---------------------------------|-----------------------------------|
|---------------------------------|-----------------------------------|
|---------------------------------|-----------------------------------|
|-6-----------6-----------6-------|-6-----------6-----------6---------|
|-4---4-4-4-4-4---4-4-4-4-4---4-4-|-4---4-4-4-4-4---4-4-4-4-4---4-4---|
|---------------------------------|-----------------------------------|
|
| S S S S S S S S S S S S S S S S   S S S S S S S S S S S S S S S S
|---------------------------------|-----------------------------------|
|---------------------------------|-----------------------------------|
|---------------------------------|-----------------------------------|
|-----3-3-4-4-1-1-3-3-4-4-3-3-----|-----3-3-4-4-1-1-3-3-4-4-3-3-------|
|-1-1-------------------------4-3-|-1-1-------------------------4-3---|
|---------------------------------|-----------------------------------|


  TPTPTPTPTPTPTPTPTPTPTPTPTPTPTPTP  TPTPTPTPTPTPTPTPTPTPTPTPTPTPTPTP
  S S S S S S S S S S S S S S S S   S S S S S S S S S S S S S S S S
|---------------------------------|-----------------------------------|
|---------------------------------|-----------------------------------|
|---------------------------------|-----------------------------------|
|---------------------------------|-----------------------------------|
|-3-3-3-3-3-3-3-3-3-3-3-3-3-3-3-3-|-3-3-3-3-3-3-3-3-3-3-3-3-3-3-3-3---|
|-1-1-1-1-1-1-1-1-1-1-1-1-1-1-1-1-|-1-1-1-1-1-1-1-1-1-1-1-1-1-1-1-1---|
|
| S S S S S S S S S S S S S S S S   S S S S S S S S S S S S S S S S
|---------------------------------|-----------------------------------|
|---------------------------------|-----------------------------------|
|---------------------------------|-----------------------------------|
|---------------------------------|-----------------------------------|
|-----3-3-4-4-1-1-3-3-4-4-3-3-----|-----3-3-4-4-1-1-3-3-4-4-3-3-------|
|-1-1-------------------------4-3-|-1-1-------------------------4-3---|


  TPTPTPTPTPTPTPTPTPTPTPTPTPTPTPTP  TPTPTPTPTPTPTPTPTPTPTPTPTPTPTPTP
  S S S S S S S S S S S S S S S S   S S S S S S S S S S S S S S S S
|---------------------------------|-----------------------------------|
|---------------------------------|-----------------------------------|
|---------------------------------|-----------------------------------|
|---------------------------------|-----------------------------------|
|-6-6-6-6-6-6-6-6-6-6-6-6-6-6-6-6-|-6-6-6-6-6-6-6-6-6-6-6-6-6-6-6-6---|
|-4-4-4-4-4-4-4-4-4-4-4-4-4-4-4-4-|-4-4-4-4-4-4-4-4-4-4-4-4-4-4-4-4---|
|
| S S S S S S S S S S S S S S S S   S S S S S S S S S S S S S S S S
|---------------------------------|-----------------------------------|
|---------------------------------|-----------------------------------|
|---------------------------------|-----------------------------------|
|---------------------------------|-----------------------------------|
|-----3-3-4-4-1-1-3-3-4-4-3-3-----|-----3-3-4-4-1-1-3-3-4-4-3-3-------|
|-1-1-------------------------4-3-|-1-1-------------------------4-3---|


  TPTPTPTPTPTPTPTPTPTPTPTPTPTPTPTP  TPTPTPTPTPTPTPTPTPTPTPTPTPTPTPTP
  S S S S S S S S S S S S S S S S   S S S S S S S S S S S S S S S S
|---------------------------------|-----------------------------------|
|---------------------------------|-----------------------------------|
|---------------------------------|-----------------------------------|
|-3-3-3-3-3-3-3-3-3-3-3-3-3-3-3-3-|-3-3-3-3-3-3-3-3-3-3-3-3-3-3-3-3---|
|-1-1-1-1-1-1-1-1-1-1-1-1-1-1-1-1-|-1-1-1-1-1-1-1-1-1-1-1-1-1-1-1-1---|
|---------------------------------|-----------------------------------|
|
| S S S S S S S S S S S S S S S S   S S S S S S S S S S S S S S S S
|---------------------------------|-----------------------------------|
|---------------------------------|-----------------------------------|
|---------------------------------|-----------------------------------|
|-----3-3-4-4-1-1-3-3-4-4-3-3-----|-----3-3-4-4-1-1-3-3-4-4-3-3-------|
|-1-1-------------------------4-3-|-1-1-------------------------4-3---|
|---------------------------------|-----------------------------------|


      PM----|     PM----|     PM|       PM----|     PM----|
  E   S S S S E   S S S S E   S S   E   S S S S E   S S S S Q
|---------------------------------|-----------------------------------|
|---------------------------------|-----------------------------------|
|---------------------------------|-----------------------------------|
|-6-----------6-----------6-------|-6-----------6-----------6---------|
|-4---4-4-4-4-4---4-4-4-4-4---4-4-|-4---4-4-4-4-4---4-4-4-4-4---------|
|---------------------------------|-----------------------------------|
|
| S S S S S S S S S S S S S S S S   S S S S S S S S S S S S S S S S
|---------------------------------|-----------------------------------|
|---------------------------------|-----------------------------------|
|---------------------------------|-----------------------------------|
|-----3-3-4-4-1-1-3-3-4-4-3-3-----|-----3-3-4-4-1-1-3-3-4-4-3-3-------|
|-1-1-------------------------4-3-|-1-1-------------------------4-3---|
|---------------------------------|-----------------------------------|


  E E E E E E E E    E  E E E E E E E    E  E E E E E E E   E E E E E E E E
|-----------------|-------------------|-------------------|-----------------|
|-----------------|-------------------|-------------------|-----------------|
|-2-2-2-2-2-2-2-2-|--3--3-3-3-3-3-3-3-|--2--2-2-2-2-2-2-2-|-3-3-3-3-2-2-0-0-|
|-0-0-0-0-0-0-0-0-|--0--0-0-0-0-0-0-0-|--0--0-0-0-0-0-0-0-|-3-3-3-3-3-3-2-2-|
|-----------------|-------------------|-------------------|-----------------|
|-----------------|-------------------|-------------------|-----------------|
|
| E E E E E E E E    E  E E E E E E E    E  E E E E E E E   E E E E E E E E
|-----------------|-------------------|-------------------|-----------------|
|-----------------|-------------------|-------------------|-----------------|
|-2-2-2-2-2-2-2-2-|--3--3-3-3-3-3-3-3-|--2--2-2-2-2-2-2-2-|-3-3-3-3-2-2-0-0-|
|-0-0-0-0-0-0-0-0-|--0--0-0-0-0-0-0-0-|--0--0-0-0-0-0-0-0-|-3-3-3-3-3-3-2-2-|
|-----------------|-------------------|-------------------|-----------------|
|-----------------|-------------------|-------------------|-----------------|
|
| Gtr III
| W                  W                   W                  H       Q   Q
|-----------------|-------------------|-------------------|-----------------|
|-----------------|-------------------|-------------------|-----------------|
|-7---------------|--8----------------|--7----------------|-8-------7---5---|
|-----------------|-------------------|-------------------|-----------------|
|-5---------------|-(5)---------------|-(5)---------------|-8-------8---7---|
|-----------------|-------------------|-------------------|-----------------|


  E E E E E E E E    E  E E E  E E E E    E  E E E E E E E   E E E E E E E E
|-----------------|--------------------|-------------------|-----------------|
|-----------------|--------------------|-------------------|-----------------|
|-2-2-2-2-2-2-2-2-|--3--3-3-3--5-5-3-3-|--2--2-2-2-2-2-2-2-|-3-3-3-3-2-2-0-0-|
|-0-0-0-0-0-0-0-0-|--0--0-0-0--0-0-0-0-|--0--0-0-0-0-0-0-0-|-3-3-3-3-3-3-2-2-|
|-----------------|--------------------|-------------------|-----------------|
|-----------------|--------------------|-------------------|-----------------|
|
| E E E E E E E E    E  E E E  E E E E    E  E E E E E E E   E E E E E E E E
|-----------------|--------------------|-------------------|-----------------|
|-----------------|--------------------|-------------------|-----------------|
|-2-2-2-2-2-2-2-2-|--3--3-3-3--5-5-3-3-|--2--2-2-2-2-2-2-2-|-3-3-3-3-2-2-0-0-|
|-0-0-0-0-0-0-0-0-|--0--0-0-0--0-0-0-0-|--0--0-0-0-0-0-0-0-|-3-3-3-3-3-3-2-2-|
|-----------------|--------------------|-------------------|-----------------|
|-----------------|--------------------|-------------------|-----------------|
|
| W                  H         Q   Q      W                  H       Q   Q
|-----------------|--------------------|-------------------|-----------------|
|-----------------|--------------------|-------------------|-----------------|
|-7---------------|--8--------10---8---|--7----------------|-8-------7---5---|
|-----------------|--------------------|-------------------|-----------------|
|-5---------------|-(5)----------------|-(5)---------------|-8-------8---7---|
|-----------------|--------------------|-------------------|-----------------|


    TPTP TPTPTPTPTPTP   TP TP TPTPTP TPTP TP
    E E  E E E E E E    E  E  E E E  E E  E
||-------------------|----------------------|
||o------------------|----------------------|
||--2-2--2-2-2-2-2-2-|--3--3--3-3-3--3-3--3-|
||--0-0--0-0-0-0-0-0-|--0--0--0-0-0--0-0--0-|
||o------------------|----------------------|
||-------------------|----------------------|
|
|   Gtr IV
|   TPTP TPTPTPTPTPTP   TP TP TPTPTP TPTP TP
|   E E  E E E E E E    E  E  E E E  E E  E
||-------------------|----------------------|
||o------------------|------------8---------|
||----9-10-7-9-9-9-9-|-----9-10-7---10-9----|
||--7----------------|--7----------------10-|
||o------------------|----------------------|
||-------------------|----------------------|
|
|   W                   W
||-------------------|----------------------|
||o------------------|----------------------|
||--7----------------|--8-------------------|
||-------------------|----------------------|
||o-5----------------|-(5)------------------|
||-------------------|----------------------|


   TP TP TPTPTPTP TPTP  TPTP TPTPTPTP TPTP
   E  E  E E E E  E E   E E  E E E E  E E
|---------------------|--------------------|
|---------------------|--------------------|
|--2--2--2-2-2-2--2-2-|-3-3--3-3-2-2--0-0--|
|--0--0--0-0-0-0--0-0-|-3-3--3-3-3-3--2-2--|
|---------------------|--------------------|
|---------------------|--------------------|
|
|  TP TP TPTPTPTP TPTP  TPTP TPTPTP   TP
|  E  E  E E E E  E E   E E  E E Q    Q
|---------------------|--------------------|
|---------------------|---8----------------|
|-----9-10-7-9-9-10-9-|-9---10-9-7---------|
|--7------------------|--------------10----|
|---------------------|--------------------|
|---------------------|--------------------|
|
|  W                    H        Q    Q
|---------------------|--------------------|
|---------------------|--------------------|
|--7------------------|-8--------7----5----|
|---------------------|--------------------|
|-(5)-----------------|-8--------8----7----|
|---------------------|--------------------|


  TPTP TPTPTPTPTPTP   TP TP TPTP TP TPTP TP
  E E  E E E E E E    E  E  E E  E  E E  E
|------------------|-----------------------|
|------------------|-----------------------|
|-2-2--2-2-2-2-2-2-|--3--3--3-3--5--5-3--3-|
|-0-0--0-0-0-0-0-0-|--0--0--0-0--0--0-0--0-|
|------------------|-----------------------|
|------------------|-----------------------|
|
| TPTP TPTPTPTPTPTP   TP TP TPTP TP TPTP TP
| E E  E E E E E E    E  E  E E  E  E E  E
|------------------|-----------------------|
|------------------|-------------8---------|
|---9-10-7-9-9-9-9-|-----9-10-7----10-9----|
|-7----------------|--7-----------------10-|
|------------------|-----------------------|
|------------------|-----------------------|
|
| W                   H          Q    Q
|------------------|-----------------------|
|------------------|-----------------------|
|-7----------------|--8---------10----8----|
|------------------|-----------------------|
|-5----------------|-(5)-------------------|
|------------------|-----------------------|


   TP TP TPTPTPTP TPTP  TPTP TPTPTPTP TPTP
   E  E  E E E E  E E   E E  E E E E  E E
|---------------------|--------------------||
|---------------------|-------------------o||
|--2--2--2-2-2-2--2-2-|-3-3--3-3-2-2--0-0--||
|--0--0--0-0-0-0--0-0-|-3-3--3-3-3-3--2-2--||
|---------------------|-------------------o||
|---------------------|--------------------||
|
|  TP TP TPTPTPTP TPTP  TPTP TPTPTP   TP
|  E  E  E E E E  E E   E E  E E Q    Q
|---------------------|--------------------||
|---------------------|---8---------------o||
|-----9-10-7-9-9-10-9-|-9---10-9-7---------||
|--7------------------|--------------10----||
|---------------------|-------------------o||
|---------------------|--------------------||
|
|  W                    H        Q    Q
|---------------------|--------------------||
|---------------------|-------------------o||
|--7------------------|-8--------7----5----||
|---------------------|--------------------||
|-(5)-----------------|-8--------8----7---o||
|---------------------|--------------------||


    TP TP TP TP   TP TP TP TP   TP TP TP TP   TP TP TP TP
    Q  Q  Q  Q    Q  Q  Q  Q    Q  Q  Q  Q    Q  Q  Q  Q
||--------------|-------------|-------------|------------|
||o-------------|-------------|-------------|------------|
||--------------|-------------|-------------|------------|
||--------------|-------------|-------------|-5----------|
||o----5--6-----|----5--6-----|----5--6-----|----6--5----|
||--3--------4--|-3--------4--|-3--------4--|----------4-|
|
|   Gtr II
|   TP TP TP TP   TP TP TP TP   TP TP TP TP   TP TP TP TP
|   Q  Q  Q  Q    Q  Q  Q  Q    Q  Q  Q  Q    Q  Q  Q  Q
||--------------|-------------|-------------|------------|
||o-------------|-------------|-------------|------------|
||--------------|-------------|-------------|------------|
||--------------|-------------|-------------|-5--5-------|
||o-5--5--5--6--|-5--5--5--6--|-5--5--5--6--|-6--6--5--5-|
||--3--3--3--4--|-3--3--3--4--|-3--3--3--4--|-------6--6-|


  TP TP TP TP   TP TP TP TP   TP TP TP TP   TP TP TP TP
  Q  Q  Q  Q    Q  Q  Q  Q    Q  Q  Q  Q    Q  Q  Q  Q
|-------------|-------------|-------------|--------------||
|-------------|-------------|-------------|-------------o||
|-------------|-------------|-------------|--------------||
|-------------|-------------|-------------|-5------------||
|----5--6-----|----5--6-----|----5--6-----|----6--5--5--o||
|-3--------4--|-3--------4--|-3--------4--|--------------||
|
| TP TP TP TP   TP TP TP TP   TP TP TP TP   TP TP TP TP
| Q  Q  Q  Q    Q  Q  Q  Q    Q  Q  Q  Q    Q  Q  Q  Q
|-------------|-------------|-------------|--------------||
|-------------|-------------|-------------|-------------o||
|-------------|-------------|-------------|--------------||
|-------------|-------------|-------------|-5--5---------||
|-5--5--5--6--|-5--5--5--6--|-5--5--5--6--|-6--6--5--5--o||
|-3--3--3--4--|-3--3--3--4--|-3--3--3--4--|-------6--6---||


    TPTPTPTPTPTPTPTP  TPTPTPTPTPTPTPTP
    E E E E E E E E   E E E E E E E E
||------------------|-----------------|
||o-----------------|-----------------|
||------------------|-----------------|
||--5-5-5-5-5-5-6-6-|-3-3-3-3-3-3-4-4-|
||o-3-3-3-3-3-3-3-3-|-1-1-1-1-1-1-1-1-|
||------------------|-----------------|
|
|   TP  TP  TP  TP    TP  TP  TP  TP
|   Q   Q   Q   Q     Q   Q   Q   Q
||------------------|-----------------|
||o-----------------|-----------------|
||--------------5---|-------------3---|
||----------5-------|---------3-------|
||o-3---6-----------|-1---4-----------|
||------------------|-----------------|


  TPTPTPTPTPTPTPTP
  E E E E E E E E   E S S S S E S S S S Q
|-----------------|--------------------------||
|-----------------|-------------------------o||
|-----------------|--------------------------||
|-5-5-5-5-5-5-6-6-|-5---------3---------3----||
|-3-3-3-3-3-3-3-3-|-6-6-6-6-6-5-5-5-5-5-5---o||
|-----------------|--------------------------||
|
| TP  TP  TP  TP    TP    TP    TP      TP
| Q   Q   Q   Q     Q     Q     Q       Q
|-----------------|--------------------------||
|-----------------|-------------------------o||
|-------------5---|--------------------------||
|---------5-------|-------5-----3------------||
|-3---6-----------|-6-------------------5---o||
|-----------------|--------------------------||


    TP TP TP TP   TP TP TP TP   TP TP TP TP   TP TP TP TP
    Q  Q  Q  Q    Q  Q  Q  Q    Q  Q  Q  Q    Q  Q  Q  Q
||--------------|-------------|-------------|--------------|
||o-------------|-------------|-------------|--------------|
||--------------|-------------|-------------|--------------|
||--------------|-------------|-------------|-5------------|
||o----5--6-----|----5--6-----|----5--6-----|----6--5------|
||--3--------4--|-3--------4--|-3--------4--|----------4---|
|
|   TP TP TP TP   TP TP TP TP   TP TP TP TP   TP TP TP TP
|   Q  Q  Q  Q    Q  Q  Q  Q    Q  Q  Q  Q    Q  Q  Q  Q
||--------------|-------------|-------------|--------------|
||o-------------|-------------|-------------|--------------|
||--------------|-------------|-------------|--------------|
||--------------|-------------|-------------|-5--5---------|
||o-5--5--5--6--|-5--5--5--6--|-5--5--5--6--|-6--6--5--5---|
||--3--3--3--4--|-3--3--3--4--|-3--3--3--4--|-------6--6---|


  TP TP TP TP   TP TP TP TP   TP TP TP TP   TP TP TP TP
  Q  Q  Q  Q    Q  Q  Q  Q    Q  Q  Q  Q    Q  Q  Q  Q
|-------------|-------------|-------------|--------------||
|-------------|-------------|-------------|-------------o||
|-------------|-------------|-------------|--------------||
|-------------|-------------|-------------|-5------------||
|----5--6-----|----5--6-----|----5--6-----|----6--5--5--o||
|-3--------4--|-3--------4--|-3--------4--|--------------||
|
| TP TP TP TP   TP TP TP TP   TP TP TP TP   TP TP TP TP
| Q  Q  Q  Q    Q  Q  Q  Q    Q  Q  Q  Q    Q  Q  Q  Q
|-------------|-------------|-------------|--------------||
|-------------|-------------|-------------|-------------o||
|-------------|-------------|-------------|--------------||
|-------------|-------------|-------------|-5--5---------||
|-5--5--5--6--|-5--5--5--6--|-5--5--5--6--|-6--6--5--5--o||
|-3--3--3--4--|-3--3--3--4--|-3--3--3--4--|-------6--6---||


    TPTPTPTPTPTPTPTP  TPTPTPTPTPTPTPTP
    E E E E E E E E   E E E E E E E E
||------------------|-----------------|
||o-----------------|-----------------|
||------------------|-----------------|
||--5-5-5-5-5-5-6-6-|-3-3-3-3-3-3-4-4-|
||o-3-3-3-3-3-3-3-3-|-1-1-1-1-1-1-1-1-|
||------------------|-----------------|
|
|   TP  TP  TP  TP    TP  TP  TP  TP
|   Q   Q   Q   Q     Q   Q   Q   Q
||------------------|-----------------|
||o-----------------|-----------------|
||--------------5---|-------------3---|
||----------5-------|---------3-------|
||o-3---6-----------|-1---4-----------|
||------------------|-----------------|


  TPTPTPTPTPTPTPTP
  E E E E E E E E   E S S S S E S S S S Q
|-----------------|--------------------------||
|-----------------|-------------------------o||
|-----------------|--------------------------||
|-5-5-5-5-5-5-6-6-|-5---------3---------3----||
|-3-3-3-3-3-3-3-3-|-6-6-6-6-6-5-5-5-5-5-5---o||
|-----------------|--------------------------||
|
| TP  TP  TP  TP    TP    TP    TP      TP
| Q   Q   Q   Q     Q     Q     Q       Q
|-----------------|--------------------------||
|-----------------|-------------------------o||
|-------------5---|--------------------------||
|---------5-------|-------5-----3------------||
|-3---6-----------|-6-------------------5---o||
|-----------------|--------------------------||


    TPTPTPTPTPTPTPTP  TPTPTPTPTPTPTPTP  TPTPTPTPTPTPTPTP  TPTPTPTPTPTPTPTP
    E E E E E E E E   E E E E E E E E   E E E E E E E E   E E E E E E E E
||------------------|-----------------|-----------------|------------------|
||o-----------------|-----------------|-----------------|------------------|
||------------------|-----------------|-----------------|------------------|
||------------------|-5-5-5-5---------|-----------------|------------------|
||o-3-3-3-3-3-3-3-3-|---------6-6-6-6-|-----------------|-5-5-5-5-6-6-6-6--|
||------------------|-----------------|-3-3-3-3-3-3-3-3-|------------------|
|
|   TPTPTPTPTPTPTPTP  TPTPTPTPTPTPTPTP  TPTPTPTPTPTPTPTP  TPTPTPTPTPTPTPTP
|   E E E E E E E E   E E E E E E E E   E E E E E E E E   E E E E E E E E
||------------------|-----------------|-----------------|------------------|
||o-----------------|-----------------|-----------------|------------------|
||------------------|-----------------|-----------------|------------------|
||--5-5-5-5-5-5-5-5-|-5-5-5-5-5-5-5-5-|-----------------|------------------|
||o-3-3-3-3-3-3-3-3-|-3-3-3-3-3-3-3-3-|-5-5-5-5-5-5-5-5-|-5-5-5-5-5-5-5-5--|
||------------------|-----------------|-3-3-3-3-3-3-3-3-|-3-3-3-3-3-3-3-3--|


  TPTPTPTPTPTPTPTP  TPTPTPTPTPTPTPTP  TPTPTPTPTPTPTPTP  TPTPTPTPTPTPTPTP
  E E E E E E E E   E E E E E E E E   E E E E E E E E   E E E E E E E E
|-----------------|-----------------|-----------------|------------------||
|-----------------|-----------------|-----------------|-----------------o||
|-----------------|-----------------|-----------------|------------------||
|-----------------|-5-5-5-5---------|-----------------|-3-3--------------||
|-3-3-3-3-3-3-3-3-|---------6-6-6-6-|-5-5-5-5-5-5-6-6-|-----6-6-5-5-6-6-o||
|-----------------|-----------------|-----------------|------------------||
|
| TPTPTPTPTPTPTPTP  TPTPTPTPTPTPTPTP  TPTPTPTPTPTPTPTP  TPTPTPTPTPTPTPTP
| E E E E E E E E   E E E E E E E E   E E E E E E E E   E E E E E E E E
|-----------------|-----------------|-----------------|------------------||
|-----------------|-----------------|-----------------|-----------------o||
|-----------------|-----------------|-----------------|------------------||
|-5-5-5-5-5-5-5-5-|-5-5-3-3-----5-5-|-----------------|------------------||
|-3-3-3-3-3-3-3-3-|---------6-6-----|-5-5-5-5-5-5-5-5-|-6-6-6-6-5-5-----o||
|-----------------|-----------------|-3-3-3-3-3-3-----|-------------6-6--||


    E H.           E   E H.           E
||-------------------|------------------|
||o------------------|------------------|
||-------------------|------------------|
||-----------------3-|-3--------------5-|
||o-3--------------4-|-1--------------3-|
||--1----------------|------------------|
|
|   E E  E E E E E E   E E  E E E E E E
||-------------------|------------------|
||o------------------|------------------|
||----5--6-3-5-6-5---|------------------|
||--3--------------6-|---5--6-3-5-6-5---|
||o------------------|-3--------------6-|
||-------------------|------------------|


  E H.           E   E Q.     Q     Q
|------------------|---------------------||
|------------------|--------------------o||
|------------------|---------------------||
|-6--------------6-|-5-------------------||
|-4--------------4-|-3--------6-----5---o||
|------------------|----------4-----3----||
|
| E E  E E E E E E   E E  E E Q     Q
|------------------|---------------------||
|------------------|--------------------o||
|---5--6-3-5-6-5---|-5-6--8-6-5tr6-------||
|-3--------------6-|----------------6----||
|------------------|--------------------o||
|------------------|---------------------||


      PM--|   PM--|     PM--|   PM--|     PM--|   PM--|     PM--|
    E E E E E E E E   E E E E E E E E   E E E E E E E E   E E E E Q     Q
||------------------|-----------------|-----------------|--------------------||
||o-----------------|-----------------|-----------------|-------------------o||
||------------------|-----------------|-----------------|--------------------||
||----------5-5-5-5-|-3-3-3-3-3-3-3-3-|-5-5-5-5-6-6-6-6-|-5-5-5-5------------||
||o-3-3-3-3-3-3-3-3-|-4-4-4-4-1-1-1-1-|-3-3-3-3-4-4-4-4-|-3-3-3-3-6-----5---o||
||--1-1-1-1---------|-----------------|-----------------|---------4-----3----||
|
|   E E E E E E E E   E E E E E E E E   E E E E E E E E   E E E E Q     Q
||------------------|-----------------|-----------------|--------------------||
||o-----------------|-----------------|-----------------|-------------------o||
||----5-6-3-5-6-5---|-----------------|---5-6-3-5-6-5---|-5-6-8-6-5tr6-------||
||--3-------------6-|---5-6-3-5-6-5---|-3-------------6-|---------------6----||
||o-----------------|-3-------------6-|-----------------|-------------------o||
||------------------|-----------------|-----------------|--------------------||


                                                          1.,2.,3.
    TPTPTPTPTPTPTPTP  TPTPTPTPTPTPTPTP  TPTPTPTPTPTPTPTP  TPTPTPTPTP    TP
    E E E E E E E E   E E E E E E E E   E E E E E E E E   E E E E Q     Q
||------------------|-----------------|-----------------|--------------------||
||o-----------------|-----------------|-----------------|-------------------o||
||------------------|-----------------|-----------------|--------------------||
||----------5-5-5-5-|-3-3-3-3-3-3-3-3-|-5-5-5-5-6-6-6-6-|-5-5-5-5------------||
||o-3-3-3-3-3-3-3-3-|-4-4-4-4-1-1-1-1-|-3-3-3-3-4-4-4-4-|-3-3-3-3-6-----5---o||
||--1-1-1-1---------|-----------------|-----------------|---------4-----3----||
|
|   Gtrs II, IV
|   E E E E E E E E   E E E E E E E E   E E E E E E E E   E E E E Q     Q
||------------------|-----------------|-----------------|--------------------||
||o-----------------|-----------------|-----------------|-------------------o||
||----5-6-3-5-6-5---|-----------------|---5-6-3-5-6-5---|-5-6-8-6-5tr6-------||
||--3-------------6-|---5-6-3-5-6-5---|-3-------------6-|---------------6----||
||o-----------------|-3-------------6-|-----------------|-------------------o||
||------------------|-----------------|-----------------|--------------------||


  4.
  TPTPTPTPTP    TP
  E E E E Q     Q   H      Q    Q    +W
|-----------------|----------------|--------*|
|-----------------|----------------|--------*|
|-----------------|----------------|--------*|
|-5-5-5-5---------|--------6----5--|-(5)----*|
|-3-3-3-3-6-----5-|-5------4----3--|-(3)----*|
|---------4-----3-|-3--------------|--------*|
|
| E E E E Q     Q   H      Q    Q    +W
|-----------------|----------------|--------*|
|-----------------|----------------|--------*|
|-5-6-8-6-5tr6----|-5b6------------|--------*|
|---------------6-|--------6----5--|-(5)----*|
|-----------------|----------------|--------*|
|-----------------|----------------|--------*|




--------------------------------------------------------------------------------


Duration Legend
---------------
W - whole; H - half; Q - quarter; E - 8th; S - 16th; T - 32nd; X - 64th;
a - acciaccatura
+ - note tied to previous; . - note dotted; .. - note double dotted
Uncapitalized letters represent notes that are staccato (1/2 duration)
Irregular groupings are notated above the duration line
Duration letters will always appear directly above the note/fret number it
represents the duration for.  Duration letters with no fret number below
them represent rests.  Multi-bar rests are notated in the form Wxn,
where n is the number of bars to rest for.  Low melody durations appear
below the staff

Tablature Legend
----------------
 h   - hammer-on
 p   - pull-off
 b   - bend
 pb  - pre-bend
 r   - bend release (if no number after the r, then release immediately)
 /\  - slide into or out of (from/to "nowhere")
 s   - legato slide
 S   - shift slide
<n> - natural harmonic
[n]  - artificial harmonic
n(n) - tapped harmonic
 ~   - vibrato
 tr  - trill
 T   - tap
 TP  - trem. picking
 PM  - palm muting
\n/  - tremolo bar dip; n = amount to dip
 \n  - tremolo bar down
 n/  - tremolo bar up
/n\  - tremolo bar inverted dip
 =   - hold bend; also acts as connecting device for hammers/pulls
 <> - volume swell (louder/softer)
 x   - on rhythm slash represents muted slash
 o   - on rhythm slash represents single note slash

Misc Legend
-----------
 |  - bar
||  - double bar
||o - repeat start
o|| - repeat end
*|  - double bar (ending)
 :  - bar (freetime)
 $  - Segno
 &  - Coda
Tempo markers - <E/E./Q/Q./H/H.> = BPM(8/16=s8/s16), where s8 = swing 8ths,
s16 = swing 16ths

                      ! Tab was created with Power Tab Editor !

  Visit MetalTabs.com for more metal tablature

bottom separator

Contact Us | Privacy Policy | Disclaimer | Legal Notice
Copyright © 2001-2014 MetalTabs.com. All Rights Reserved.