top separator

Home

Forum

What's New

Submit a Tab

FAQ

Links

Contact Us

Link to Us

MetalTabs.com logo

Bands

0-9

A

B

C

D

E

F

G

H

I

J

K

L

M

N

O

P

Q

R

S

T

U

V

W

X

Y

Z

Search

What

Where
 

Sodom - "Eat Me!" Bass Tab

Plain Text Version
More Sodom Tabs

Hits: 4771
Rated: 5.00 out of 5 (5 votes)
Updated: 2004-07-09 15:02:52

 

By:

Sodomaniac

sendpm.gif

email.gif

Important note
This tab is available online because we obtained explicit permission from Sodom or their label.


#----------------------------------PLEASE NOTE---------------------------------#
#This file is the author's own work and represents their interpretation of the #
#song. You may only use this file for private study, scholarship, or research. #
#Unless specified otherwise, this is NOT an official tab from the band members.#
#------------------------------------------------------------------------------#

  Visit MetalTabs.com for more metal tablature
  
Band: Sodom
Album: Get What You Deserve
Song: Eat Me

Transcribed By: sodomaniac
Email: torbenauras@aol.com



Bass starts with:
G-------|
D-------|
A-------|
E--5/1--|

Riff1:
G------------------------------------------------------------|
D------------------------------------------------------------|
A------------------------------------------------------------|
E--0-1-1--0-1-1--0-1-1--0-1-1--0-1-1--0-1-1--0-1-1--0-1-1/5--|

Riff1a:
G----------------------------------------------------------|
D----------------------------------------------------------|
A----------------------------------------------------------|
E--0-1-1--0-1-1--0-1-1--0-1-1--0-1-1--0-1-1--0-1-1--0-1-1--|

Riff1b:
G------------------------------|
D------------------------------|
A------------------------------|
E--0-1-1--0-1-1--0-1-1--0-1-1--|

Riff2:
G------------------|
D------------------|
A--0--0-0--2--2-2--|
E------------------|

Riff3:(During Guitar Solo)                          after the 3. reapeat
G----------------------------------------------------------|------|
D----------------------------------------------------------|------|
A----------------------------------------------------------|------|
E--2-3-3--2-3-3--2-3-3--2-3-3--2-3-3--2-3-3--2-3-3--2-3-3--|--/5--|

Riff4:
G-----------|
D-----------|
A-----------|
E--0-0-5\1--|


Order:
Start
Riff1  x3
Riff1a x1
Riff2  x1
Riff1  x2
Riff1a x1
Riff2  x1
Riff1b x1
Riff2  x1
Riff1  x2
Riff1a x1
Riff2  x1
Riff3  x3
Riff1  x2
Riff1a x1
Riff2  x1
Riff1b x1
Riff2  x1
Riff1b x1
Riff2  x1
Riffa  x4
Riff4  fade out with this Rif

  Visit MetalTabs.com for more metal tablature

bottom separator

Contact Us | Privacy Policy | Disclaimer | Legal Notice
Copyright © 2001-2014 MetalTabs.com. All Rights Reserved.