top separator

Home

Forum

What's New

Submit a Tab

FAQ

Links

Contact Us

Link to Us

MetalTabs.com logo

Bands

0-9

A

B

C

D

E

F

G

H

I

J

K

L

M

N

O

P

Q

R

S

T

U

V

W

X

Y

Z

Search

What

Where
 

In Extremo - "Herr Mannelig" Guitar Tab

Plain Text Version
More In Extremo Tabs

Hits: 21503
Rated: 3.58 out of 5 (12 votes)
Updated: 2004-07-09 14:59:57

 

By:

Darkenelf

sendpm.gif

email.gif

Important note
We did our best to reach In Extremo and ask for their permission to publish this tab. Unfortunately they did not respond to our requests or we could not find a way to contact them. This tab is available online until In Extremo tells us to take it down.


#----------------------------------PLEASE NOTE---------------------------------#
#This file is the author's own work and represents their interpretation of the #
#song. You may only use this file for private study, scholarship, or research. #
#Unless specified otherwise, this is NOT an official tab from the band members.#
#------------------------------------------------------------------------------#

  Visit MetalTabs.com for more metal tablature
  
Band:  In Extremo
Album: Verehrt und Angespien
Song:  Herr Mannelig

Copyright (c)  (Metal Blade Records) (1999)
Version 1.0 - 08-07-2004

Transcribed By: Martijn Wietsma
Email: northerland@yahoo.co.uk


.  - palm mute           /  - slide up to
\  - slide down to       ~  - vibrato
h  - hammer on           b  - Bend
p  - pull off            Suffixes for bend
t  - tap                 f  - full bend    h - half bend
ph - pinched harmonic    q  - quarter bend t - tap bend
*  - see comment         ^  - Hold bend    r release bend
x  - Stuccatto           ~  - vibrato bend
,  - slight palm mute    () - ghost note, sustained note
"  - tremolo note        <> - Trill

Tuning E A D G B E

riff A
|-7-7--8-7-5------------5------------------5~---5-7~-10~------------|
|------------8-5----7-8---8-7-5-----5-7-8~----8---------------------|
|-------------------------------------------------------------------|
|-------------------------------------------------------------------|
|-------------------------------------------------------------------|
|-------------------------------------------------------------------|

|-5-7~--8-7-5------------5-----------------5~-----------------------|
|-------------8-5----7-8---8-7-5-----5-7-8----8p7p5--5~-------------|
|-------------------------------------------------------------------|
|-------------------------------------------------------------------|
|-------------------------------------------------------------------|
|-------------------------------------------------------------------|

riff B (acoustic part) (0:19) (misses)

repeat riff A 1x (0:36)

riff C (0:54) (distortion)
|-------------------------------------------------------------------|
|-------------------------------------------------------------------|
|-------------------------------------------------------------------|(3x)
|-------------------------------------------------------------------|
|-2222-2222----2222-2222----2222-2222----2222-2222------------------|
|-0000-0000----0000-0000----0000-0000----0000-0000------------------|
  .... ....    .... ....    .... ....    .... ....

repeat riff A 1x (1:22)

riff D (1:40)
|-5h6-5----------------------------------------5~-8-----------------|
|-------8-6-6------5-6-8-6-5-------5h6~-8~-6-8----------------------|
|-------------7--------------7---7----------------------------------|
|-------------------------------------------------------------------|
|-------------------------------------------------------------------|
|-------------------------------------------------------------------|

|-5h6-5-------------------------------------------------------------|
|-------8-6-6------5-6-8-6-5-------5h6-8~-6p5h----------------------|
|-------------7--------------7---7-------------7--7~----------------|
|-------------------------------------------------------------------|
|-------------------------------------------------------------------|
|-------------------------------------------------------------------|

riff E (distortion)
|-------------------------------------------------------------------|
|-------------------------------------------------------------------|
|-------------------------------------------------------------------|(4x)
|-7~----------------------------------------------------------------|
|-5-------33-3---55-5---7777-7--7777-7------------------------------|
|---------11-1---33-3---5555-5--5555-5------------------------------|
          ..     ..     ..      ..

repeat riff C 3x (1:58)
repeat riff A 1x (2:25)
repeat riff D 1x + E 4x (2:43)
repeat riff B 1x (acoustic part, which misses)
repeat riff A 1x (3:37)
repeat riff D 1x (3:56)
repeat riff E 4x

riff F
|-------------------------------------------------------------------|
|-------------------------------------------------------------------|
|-------------------------------------------------------------------|(1x)
|-7~----------------------------------------------------------------|
|-5-------33-3---55-5---7~------------------------------------------|
|---------11-1---33-3---5-------------------------------------------|
          ..     ..

(end of song)

  Visit MetalTabs.com for more metal tablature

bottom separator

Contact Us | Privacy Policy | Disclaimer | Legal Notice
Copyright © 2001-2014 MetalTabs.com. All Rights Reserved.