top separator

Home

Forum

What's New

Submit a Tab

FAQ

Links

Contact Us

Link to Us

MuSpy.com

MetalTabs.com logo

Bands

0-9

A

B

C

D

E

F

G

H

I

J

K

L

M

N

O

P

Q

R

S

T

U

V

W

X

Y

Z

Search

What

Where
 

Burzum - "Han som reiste" Guitar Tab

Plain Text Version
More Burzum Tabs

Hits: 8777
Rated: 4.80 out of 5 (5 votes)
Updated: 2004-07-08 04:49:44

 

By:

sendpm.gif

email.gif

Important note
This tab is available online because we obtained explicit permission from Burzum or their label.


#----------------------------------PLEASE NOTE---------------------------------#
#This file is the author's own work and represents their interpretation of the #
#song. You may only use this file for private study, scholarship, or research. #
#Unless specified otherwise, this is NOT an official tab from the band members.#
#------------------------------------------------------------------------------#

  Visit MetalTabs.com for more metal tablature
  
Band: Burzum
Album: Det Som Engang Var
Song: Han som reiste

Tabbed by mugabe

e |--------------------------------|--------------------------------|
B |--------------------------------|--------------------------------|
G |--------------------------------|0h2-----------------------------|
D |--------------------------------|--------------------------------|
A |5---5---5---5---5---5---5---5---|5---5---5---5---5---5---5---5---|
E |--------------------------------|--------------------------------|

e |--------------------------------|--------------------------------|
B |--------------------------------|--------------------------------|
G |0h2-----------------------------|0h2-----------------------------|
D |----------------3---------------|--------------------------------|
A |5---5---5---5---5---5---5---5---|5---5---5---5---5---5---5---5---|
E |--------------------------------|--------------------------------|

e |--------------------------------|--------------------------------|
B |--------------------------------|--------------------------------|
G |0h2-----------------------------|--------------------------------|
D |----------------3---------------|2-------------------------------|
A |5---5---5---5---5---5---5---5---|3---3---3---3---3---3---3---3---|
E |--------------------------------|--------------------------------|

e |--------------------------------|--------------------------------|
B |--------------------------------|--------------------------------|
G |0h2-----------------------------|0h2-----------------------------|
D |--------------------------------|----------------3---------------|
A |5---5---5---5---5---5---5---5---|5---5---5---5---5---5---5---5---|
E |--------------------------------|--------------------------------|

e |--------------------------------|--------------------------------|
B |--------------------------------|--------------------------------|
G |0h2-----------------------------|0h2-----------------------------|
D |--------------------------------|----------------3---------------|
A |5---5---5---5---5---5---5---5---|5---5---5---5---5---5---5---5---|
E |--------------------------------|--------------------------------|

e |--------------------------------|--------------------------------|
B |--------------------------------|--------------------------------|
G |--------------------------------|--------------------------------|
D |2-------------------------------|--------------------------------|
A |3---3---3---3---3---3---3---3---|5---5---5---5*--5---5---5---5*--|
E |--------------------------------|--------------------------------|

e |----5-------5r3-----5-------5r3-|0-------3-------0---------------|
B |----3-------3-------3-------3---|1-------1-------1---------------|
G |--------------------------------|--------------------------------|
D |--------------------------------|--------------------------------|
A |5---5---5---5---5---5---5---5---|3---3---3---3---3---3---3---3---|
E |--------------------------------|--------------------------------|

e |----5-------5r3-----5-------5r3-|0-------3-------0---------------|
B |----3-------3-------3-------3---|1-------1-------1---------------|
G |--------------------------------|--------------------------------|
D |--------------------------------|--------------------------------|
A |5---5---5---5---5---5---5---5---|3---3---3---3---3---3---3---3---|
E |--------------------------------|--------------------------------|

e |--------------------------------|----5-------5r3-----5-------5r3-|
B |--------------------------------|----3-------3-------3-------3---|
G |--------------------------------|--------------------------------|
D |--------------------------------|--------------------------------|
A |5---5---5---5---5---5---5---5---|5---5---5---5---5---5---5---5---|
E |--------------------------------|--------------------------------|

e |0-------3-------0---------------|----5-------5r3-----5-------5r3-|
B |1-------1-------1---------------|----3-------3-------3-------3---|
G |--------------------------------|--------------------------------|
D |--------------------------------|--------------------------------|
A |3---3---3---3---3---3---3---3---|5---5---5---5---5---5---5---5---|
E |--------------------------------|--------------------------------|

e |0-------3-------0---------------|
B |1-------1-------1---------------|
G |--------------------------------|
D |--------------------------------|
A |3---3---3---3---3---3---3---3---| ...and start all over again.
E |--------------------------------|

(*) Not played the second time

  Visit MetalTabs.com for more metal tablature

bottom separator

Contact Us | Privacy Policy | Disclaimer | Legal Notice
Copyright © 2001-2014 MetalTabs.com. All Rights Reserved.