top separator

Home

Forum

What's New

Submit a Tab

FAQ

Links

Contact Us

Link to Us

MetalTabs.com logo

Bands

0-9

A

B

C

D

E

F

G

H

I

J

K

L

M

N

O

P

Q

R

S

T

U

V

W

X

Y

Z

Search

What

Where
 

Suffocation - "Habitual Infamy" Guitar Tab

Plain Text Version
More Suffocation Tabs

Hits: 4559
Rated: 3.17 out of 5 (12 votes)
Updated: 2004-07-07 09:46:07

 

By:

Chris Rezendes

sendpm.gif

email.gif

Important note
This tab is available online because we obtained explicit permission from Suffocation or their label.


#----------------------------------PLEASE NOTE---------------------------------#
#This file is the author's own work and represents their interpretation of the #
#song. You may only use this file for private study, scholarship, or research. #
#Unless specified otherwise, this is NOT an official tab from the band members.#
#------------------------------------------------------------------------------#

  Visit MetalTabs.com for more metal tablature
  
=============================================================================
Song: Habitual Infamy
Artist: Suffocation
Album: Effigy of the Forgotten (1991)

Tabbed by Chris Rezendes (dudemcrude@yahoo.com)
Date started tab: Unknown
Date finished tab: 07/07/04

Tuning: C (two steps down)
Copy: First

Notation Key
~  : vibrato
^  : bend
.  : palm mute
r  : release
t  : trill
p  : pull-off
h  : hammer-on
x  : ghost note
/  : slide up
\  : slide down
>< : pinch harmonics

Comments: I want to point out that I'm pretty sure that one guitar is tuned
to C (2 steps down) and the other to Db (1 and 1/2 steps down), but it was
easier for me to just do the whole tab in C, so I did.  Either way you can
still play it, I just wanted to point out that the tuning is different than
how I put it.  If you spot a mistake, do everybody a favor and point it out
so it can be fixed.  Later.
=============================================================================

Fig. 1 x3
e|----------------|---------------------------|---------|--------------|
B|----------------|---------------------------|---------|--------------|
G|----------------|---------------------------|---------|--------------|
D|--3-4-3--4-5\4--|---------------------------|--3-4-3--|--------------|
A|--3-4-3--4-5\4--|--------------444-333------|--3-4-3--|----------7\--|
E|--1-2-1--2-3\2--|--333-222-333---------444--|--1-2-1--|--333-222-----|

e|----------------|---------------------------|---------|--------------|
B|----------------|---------------------------|---------|--------------|
G|----------------|---------------------------|---------|--------------|
D|--3-4-3--4-4-4--|---------------------------|--3-4-3--|--------------|
A|--3-4-3--4-4-4--|--------------444-333------|--3-4-3--|----------7\--|
E|--1-2-1--2-2-2--|--333-222-333---------444--|--1-2-1--|--333-222-----|

Fill 1 x1
e|----------------|
B|----------------|
G|----------------|
D|--3-4-3--4-5\4--|
A|--3-4-3--4-5\4--|
E|--1-2-1--2-3\2--|

Riff 1 x2
e|------------------------------------|-----------------------------------|
B|------------------------------------|-----------------------------------|
G|------------------------------------|-----------------------------------|
D|---------------------------5-6-5-3--|--------------------------5-6-5-3--|
A|--222-222-222-222-222-222-----------|--222-222-222-222-7-5-4-5----------|
E|--000-000-000-000-000-000-----------|--000-000-000-000------------------|

e|------------------------------------|---------------------------------|
B|------------------------------------|---------------------------------|
G|------------------------------------|---------------------------------|
D|---------------------------5-6-5-3--|---------------------------------|
A|--222-222-222-222-222-222-----------|--222-222-222-222-------1-2-4-5--|
E|--000-000-000-000-000-000-----------|--000-000-000-000-0-1-2----------|

            TIME- 0:42

Riff 2 x2
e|----------------------------------|-------------------------------|
B|----------------------------------|-------------------------------|
G|----------------------------------|-------------------------------|
D|-------------------------5-4------|--4-----333-444----------------|
A|---------4-3-----5-4---------5-4--|--2-------------444444---------|
E|--222222-----4-3-----5-4----------|----111----------------333333--|

e|----------------------------------|-----------------------------------|
B|----------------------------------|-----------------------------------|
G|----------------------------------|-----------------------------------|
D|-------------------------5-4------|--------------------------666-555--|
A|---------4-3-----5-4---------5-4--|----------555-----555-666----------|
E|--222222-----4-3-----5-4----------|--333-666-----444------------------|

Riff 3 x2
e|-------------|---------------|-----------------------|
B|-------------|---------------|-----------------------|
G|-------------|---------------|-----------------------|
D|----------2--|------------2--|--------------------2--|
A|--------2----|----------2----|------------------2----|
E|--1-0-1------|--0-1-0-1------|--0-1-0-2-3-1-0-1------|
    . . . . .     . . . . . .     . . . . . . . . . .

e|-------------------------|-------------|---------------|
B|-------------------------|-------------|---------------|
G|--------------3----------|-------------|---------------|
D|----------3-2-------4-5--|----------2--|------------2--|
A|--------2-------3-4------|--------2----|----------2----|
E|--0-1-0------------------|--1-0-1------|--0-1-0-1------|
    . . .         . .         . . . . .     . . . . . .

e|-----------------------|-------------------------|
B|-----------------------|-------------------------|
G|-----------------------|-------------------------|
D|--------------------2--|-------------------------|
A|------------------2----|----------------2-1------|
E|--0-1-0-2-3-1-0-1------|--0-1-0-0-1-2-3-----2-3--|
    . . . . . . . . . .     . . . . . . . . . . .

            TIME- 1:18

Riff 4 x1
e|--------------------------------------|
B|--------------------------------------|
G|--------------------------------------|
D|--------------------------------------|
A|---------------------------------3-2--|
E|--3-2-1-2--4-3-2-3--5-4-3-4--4-3------|

e|-------------------------------------|
B|-------------------------------------|
G|-------------------------------------|
D|-------------------------------------|
A|--------------------4-3-----3-2------|
E|--3-2-1-2--4-3-2-3------5-4-----4-3--|

e|--------------------------------------|---------------------------------|
B|--------------------------------------|---------------------------------|
G|--------------------------------------|------------------------5-----4--|
D|--------------------------------------|------------------------3-----2--|
A|---------------------------------3-2--|------------------------3-----2--|
E|--3-2-1-2--4-3-2-3--5-4-3-4--4-3------|--3-2-1-2--4-3-2-3--000---000----|

e|--------------------------------------|
B|--------------------------------------|
G|--------------------------------------|
D|--------------------------------------|
A|---------------------------------3-2--|
E|--3-2-1-2--4-3-2-3--5-4-3-4--4-3------|

e|-------------------------------------|
B|-------------------------------------|
G|-------------------------------------|
D|-------------------------------------|
A|--------------------4-3-----3-2------|
E|--3-2-1-2--4-3-2-3------5-4-----4-3--|

e|--------------------------------------|--------------------|
B|--------------------------------------|--------------------|
G|--------------------------------------|--------------------|
D|--------------------------------------|--------------------|
A|---------------------------------3-2--|--------------------|
E|--3-2-1-2--4-3-2-3--5-4-3-4--4-3------|--3-2-1-2--4-3-2-3--|

Riff 5 x1
e|---------------------------|---------------------------|
B|---------------------------|---------------------------|
G|------5-----4--------------|------5-----4--------------|
D|------3-----2-----7-----6--|------3-----2-----5-----4--|
A|------3-----2-----5-----4--|------3-----2-----5-----4--|
E|--000---000---000-5-000-4--|--000---000---000-3-000-2--|

e|---------------------------|---------------------------|
B|---------------------------|---------------------------|
G|------5-----4--------------|------5-----4--------------|
D|------3-----2-----7-----6--|------3-----2-----5-----4--|
A|------3-----2-----5-----4--|------3-----2-----5-----4--|
E|--000---000---000-5-000-4--|--000-------------3-----2--|
                                    .     .     .     .
            TIME- 1:43
Riff 6 x2
e|---------------------------------|----------------------------------|
B|---------------------------------|----------------------------------|
G|---------------------------------|----------------------------------|
D|----------------------7-6-5------|----------------------------------|
A|------------------4-5------------|----------------3-2-1-2--3-2-3-4--|
E|--444444-333333-6-----------5-4--|--222222-111111-------------------|

e|---------------------------------|----------------------------------|
B|---------------------------------|----------------------------------|
G|---------------------------------|----------------------------------|
D|----------------------7-6-5------|----------------------------------|
A|------------------4-5------------|----------------1-2-432--2-3-543--|
E|--444444-333333-6-----------5-4--|--222222-111111-------------------|

Fig. 2A x4
e|-------------------------|-------------------------|
B|-------------------------|-------------------------|
G|-------------------------|-------------------------|
D|--4---3---4---3---2---3--|--4---3---4---3---5---4--|
A|--4---3---4---3---2---3--|--4---3---4---3---5---4--|
E|--2---1---2---1---0---1--|--2---1---2---1---3---2--|
    .   .   .   .   .   .     .   .   .   .   .  .

            TIME- 2:14

Fig. 2B x2
e|-------------------------|--------------------------|
B|-------------------------|--------------------------|
G|-------------------------|--------------------------|
D|--9---8---9---8---7---8--|--9---8---9---8---10---9--|
A|--7---6---7---6---5---6--|--7---6---7---6----8---7--|
E|--7---6---7---6---5---6--|--7---6---7---6----8---7--|
    .   .   .   .   .   .     .   .   .   .    .  .

Fig. 2A x2
e|-------------------------|-------------------------|
B|-------------------------|-------------------------|
G|-------------------------|-------------------------|
D|--4---3---4---3---2---3--|--4---3---4---3---5---4--|
A|--4---3---4---3---2---3--|--4---3---4---3---5---4--|
E|--2---1---2---1---0---1--|--2---1---2---1---3---2--|
    .   .   .   .   .   .     .   .   .   .   .  .

            TIME- 2:27

Riff 7 x2
e|----------------------------|----------------------------|
B|----------------------------|----------------------------|
G|--4-------------4--------5--|--4-------------4-----5--5--|
D|--4-------------4--3--4--5--|--4-------------4--3--3--3--|
A|--2-------------2--3--4--3--|--2-------------2--3--3--3--|
E|----111-111-111----1--2-----|----111-111-111----1--------|
      ... ... ...                  ... ... ...       .  .

Riff 8 x1
e|-------------------------------------------------------------------|
B|-------------------------------------------------------------------|
G|-------------------------------------------------------------------|
D|------444-333-------------666-555-666-222-333----------------------|
A|----------------------333-----------------------------444-555-222--|
E|--111---------444-222-------------------------444-333--------------|

e|-------------------------------------------------------------------|
B|-------------------------------------------------------------------|
G|-------------------------------------------------------------------|
D|------555-444-------------777-666-777-----333----------------------|
A|--222-----------------333-----------------------------333-444-111--|
E|--------------333-222-----------------555-----222-111--------------|

            TIME- 2:44

Riff 7 x2
e|----------------------------|----------------------------|
B|----------------------------|----------------------------|
G|--4-------------4--------5--|--4-------------4-----5--5--|
D|--4-------------4--3--4--5--|--4-------------4--3--3--3--|
A|--2-------------2--3--4--3--|--2-------------2--3--3--3--|
E|----111-111-111----1--2-----|----111-111-111----1--------|
      ... ... ...                  ... ... ...       .  .

Riff 8 x1
e|-------------------------------------------------------------------|
B|-------------------------------------------------------------------|
G|-------------------------------------------------------------------|
D|------444-333-------------666-555-666-222-333----------------------|
A|----------------------333-----------------------------444-555-222--|
E|--000---------444-222-------------------------444-333--------------|

e|-------------------------------------------------------------------|
B|-------------------------------------------------------------------|
G|-------------------------------------------------------------------|
D|------555-444-------------777-666-777-----333----------------------|
A|--222-----------------333-----------------------------333-444-111--|
E|--------------333-222-----------------555-----222-111--------------|

            TIME- 2:59

Fill 1A x1
e|---------------------|
B|---------------------|
G|---------------------|
D|---------------------|
A|----5-4---4-----4-3--|
E|--3-----5---4-5------|

Fig. 3 x4        |   Guitar A    |
e|---------------|---------------|--------------|-----------------|
B|---------------|---------------|--------------|-----------------|
G|------------4--|------------4--|-----------4--|-----------------|
D|------------4--|------------4--|-----------4--|----------8-7-6--|
A|-----3-2----2--|------3-2---2--|-----3-2---2--|------3-2-6-5-4--|
E|--1------3-----|--2-3-----3----|--1------3----|--2-3-----6-5-4--|
                 |   Guitar B    |
                 |---------------|
                 |---------------|
                 |----------->4<-|
                 |---------------|
                 |---------------|
                 |---------------|

Fill 2 x1            | Guitar 1          |
e|-------------------|-------------------|
B|-------------------|-------------------|
G|--6----------------|------2-3-----3-4--|
D|--4----------------|--1-2-----4-5------|
A|--4----------------|-------------------|
E|----1-0-2-1-1-0-2--|-------------------|
                     | Guitar 2          |
                     |-------------------|
                     |------2-3-----3-4--|
                     |--1-2-----3-4------|
                     |-------------------|
                     |-------------------|
                     |-------------------|

            TIME- 3:24

Riff 6 x2
e|---------------------------------|----------------------------------|
B|---------------------------------|----------------------------------|
G|---------------------------------|----------------------------------|
D|----------------------7-6-5------|----------------------------------|
A|------------------4-5------------|----------------3-2-1-2--3-2-3-4--|
E|--444444-333333-6-----------5-4--|--222222-111111-------------------|

e|---------------------------------|----------------------------------|
B|---------------------------------|----------------------------------|
G|---------------------------------|----------------------------------|
D|----------------------7-6-5------|----------------------------------|
A|------------------4-5------------|----------------1-2-432--2-3-543--|
E|--444444-333333-6-----------5-4--|--222222-111111-------------------|

Riff 9 x4
e|----------------|----------------------|
B|----------------|----------------------|
G|----------------|----------------------|
D|-----------4/5--|-----------------7\6--|
A|-----------2/3--|--5------2-3-----5\4--|
E|--22222222------|--3--3-2-----3-2------|

            TIME- 3:49

Riff 8 x1
e|-------------------------------------------------------------------|
B|-------------------------------------------------------------------|
G|-------------------------------------------------------------------|
D|------444-333-------------666-555-666-222-333----------------------|
A|----------------------333-----------------------------444-555-222--|
E|--000---------444-222-------------------------444-333--------------|

e|-------------------------------------------------------------------|
B|-------------------------------------------------------------------|
G|-------------------------------------------------------------------|
D|------555-444-------------777-666-777-----333----------------------|
A|--222-----------------333-----------------------------333-444-111--|
E|--------------333-222-----------------555-----222-111--------------|

Riff 7 x2
e|----------------------------|----------------------------|
B|----------------------------|----------------------------|
G|--4-------------4--------5--|--4-------------4-----5--5--|
D|--4-------------4--3--4--5--|--4-------------4--3--3--3--|
A|--2-------------2--3--4--3--|--2-------------2--3--3--3--|
E|----111-111-111----1--2-----|----111-111-111----1--------|
      ... ... ...                  ... ... ...       .  .

            TIME- 4:04

Riff 8 x1
e|-------------------------------------------------------------------|
B|-------------------------------------------------------------------|
G|-------------------------------------------------------------------|
D|------444-333-------------666-555-666-222-333----------------------|
A|----------------------333-----------------------------444-555-222--|
E|--000---------444-222-------------------------444-333--------------|

e|-------------------------------------------------------------------|
B|-------------------------------------------------------------------|
G|-------------------------------------------------------------------|
D|------555-444-------------777-666-777-----333----------------------|
A|--222-----------------333-----------------------------333-444-111--|
E|--------------333-222-----------------555-----222-111--------------|

Fill 1B x1
e|---------------------|-----|
B|---------------------|-----|
G|---------------------|-----|
D|---------------------|--3--|
A|----5-4---4-----4-3--|--3--|
E|--3-----5---4-5------|--1--|

            TIME- 4:15

  Visit MetalTabs.com for more metal tablature

bottom separator

Contact Us | Privacy Policy | Disclaimer | Legal Notice
Copyright © 2001-2014 MetalTabs.com. All Rights Reserved.