top separator

Home

Forum

What's New

Submit a Tab

FAQ

Links

Contact Us

Link to Us

MetalTabs.com logo

Bands

0-9

A

B

C

D

E

F

G

H

I

J

K

L

M

N

O

P

Q

R

S

T

U

V

W

X

Y

Z

Search

What

Where
 

Watchtower - "Instruments Of Random Murder" Guitar Tab

Plain Text Version
More Watchtower Tabs

Hits: 4567
Rated: 3.89 out of 5 (18 votes)
Updated: 2004-07-07 09:45:47

 

By:

Chris Rezendes

sendpm.gif

email.gif

Important note
This tab is available online because we obtained explicit permission from Watchtower or their label.


#----------------------------------PLEASE NOTE---------------------------------#
#This file is the author's own work and represents their interpretation of the #
#song. You may only use this file for private study, scholarship, or research. #
#Unless specified otherwise, this is NOT an official tab from the band members.#
#------------------------------------------------------------------------------#

  Visit MetalTabs.com for more metal tablature
  
=============================================================================
Song: Instruments of Random Murder
Artist: Watchtower
Album: Control and Resistance (1989, Noise)

Tabbed by Chris Rezendes (dudemcrude@yahoo.com)
Date started tab: 6/18/04
Date finished tab: 6/27/04

Tuning: E
Copy: First, but many mistakes were corrected before release

Notation Key
~  : vibrato
^  : bend
.  : palm mute
r  : release
t  : trill
p  : pull-off
h  : hammer-on
x  : ghost note
/  : slide up
\  : slide down
>< : pinch harmonics

Comments: Since yesterday was my birthday, the Red Sox decided to play the
shittiest game of baseball I've ever seen, and allow themselves to lose a
game they easily should have won, 9-2.  I don't know why my birthday always
has to suck.  At least they kicked the shit out of the stupid Phillies today.
I know this has nothing to do with the tab at all, but a man has to vent
somewhere, right?  E-mail me if there's something wrong with the tab, it will
help you, me, and everybody else out.  Thanks.  Later.
=============================================================================

Riff 1A x1 (Might as well call it the intro...)
e|---------------------------------|
B|---------------------------------|
G|---------------------------------|
D|------3-----5-----7-----8-----7--|
A|--0-1---1-3---3-5---5-6---6-5----|
E|---------------------------------|

Fig. 1A x2
e|------------------------------------|
B|------------------------------------|
G|--10-----10-----10------------------|
D|--10-----10-----10-----10-9------9--|
A|---8-8-8----8-8----8-8------10-8----|
E|------------------------------------|

e|-----------------------------------------|
B|-----------------------------------------|
G|------10-----10--------------------------|
D|------10-----10-----10-9------9-8-----6--|
A|--8-8----8-8----8-8------10-8-----9-8----|
E|-----------------------------------------|

            TIME- 0:14

Fig. 1B x2
e|-----------------------------|-------------------------------------|
B|-----------------------------|-------------------------------------|
G|------9-----9----------------|------9-----9------------------------|
D|------9-----9----------------|------9-----9------------------------|
A|--7-7---7-7---7-7-8-7-----9--|--7-7---7-7---7-7-8-7-----8-7-----8--|
E|----------------------8-7----|----------------------8-7-----8-7----|

Fig. 1C x1
e|------------------------------|--------------------------------------|
B|------------------------------|--------------------------------------|
G|--9-9---9-9---9-9-------------|--9-9---9-9---9-9---------------------|
D|--9-9---9-9---9-9-------------|--9-9---9-9---9-9---------------------|
A|--7-7---7-7---7-7--8-7-----9--|--7-7---7-7---7-7--8-7-----8-7-----8--|
E|-----------------------8-7----|-----------------------8-7-----8-7----|

 | *two guitars arranged for one*    |
e|-----------------------------------|------------------------------------|
B|-----------------------------------|------------------------------------|
G|--9-9--9--9-9--9-9-9-9-------------|--9-9---9-9---9-9-------------------|
D|--9-9------------------------------|--9-9---9-9---9-9----------------7--|
A|--7-7--7--7-7--7-7-7-7--8-7-----9--|--7-7---7-7---7-7--8-7-----8-7---7--|
E|----------------------------8-7----|-----------------------8-7-----8-5--|

            TIME- 0:35

            Silence

            TIME- 0:36

Riff 2A x1
   Guitar 1
 e|---------------------------------------|---------------|
 B|---------------------------------------|---------------|
 G|------------------------------------5--|--5--5--5--5~--|
 D|---------9--------6--------4-----------|---------------|
 A|--000000---000000---000000---000000----|---------------|
 E|---------------------------------------|---------------|
     ......   ......   ......   ......

   Guitar 2
 e|---------------------------------------|---------------|
 B|---------------------------------------|---------------|
 G|---------------------------------------|---------->5<--|
 D|---------------------------------------|---------------|
 A|---------------------------------------|---------------|
 E|---------------------------------------|---------------|

   Guitar 1
 e|---------------------------------------|---------------|
 B|---------------------------------------|---------------|
 G|------------------------------------5--|--55555555555--|
 D|---------9--------6--------4-----------|---------------|
 A|--000000---000000---000000---000000----|---------------|
 E|---------------------------------------|---------------|
     ......   ......   ......   ......

   Guitar 2
 e|---------------------------------------|---------------|
 B|---------------------------------------|---------------|
 G|--------11--------8--------6-------12--|--12--12--12---|
 D|---------9--------6--------4-------10--|--10--10--10---|
 A|---------------------------------------|---------------|
 E|---------------------------------------|---------------|

Riff 2B x1
e|---------------------------------------|----------------|
B|---------------------------------------|----------------|
G|------------------------------------5--|--5--5--5-->5<--|
D|---------9--------6--------4-----------|----------------|
A|--000000---000000---000000---000000----|----------------|
E|---------------------------------------|----------------|
    ......   ......   ......   ......

e|---------------------------------------|--------------|
B|---------------------------------------|--------------|
G|------------------------------------5--|--5--5--5--5--|
D|---------9--------6--------4-----------|--------------|
A|--000000---000000---000000---000000----|--------------|
E|---------------------------------------|--------------|
    ......   ......   ......   ......

            TIME- 0:49

Riff 3A x1
e|---------------------------------------------------------------------|
B|------------------------------------------555-444--------------------|
G|---------4--------4-----5--------5----------------444-333---------4--|
D|--222222---222222---222---222222---222222-----------------555-----4--|
A|--------------------------------------------------------------666-2--|
E|---------------------------------------------------------------------|

e|-----|-----|
B|-----|-----|
G|-----|--5--|
D|--4--|--5--|
A|--4--|--3--|
E|--2--|-----|

Riff 3B x1
e|---------------------------------------------------------------------|
B|------------------------------------------555-444--------------------|
G|---------4--------4-----5--------5----------------444-333---------4--|
D|--222222---222222---222---222222---222222-----------------555-----4--|
A|--------------------------------------------------------------666-2--|
E|---------------------------------------------------------------------|

e|-----|-----|
B|-----|-----|
G|-----|-----|
D|--4--|--3--|
A|--4--|--3--|
E|--2--|--1--|

Riff 3C x1
e|---------------------------------------------------------------------|
B|------------------------------------------666-555--------------------|
G|---------5--------5-----6--------6----------------555-444---------5--|
D|--333333---333333---333---333333---333333-----------------666-----5--|
A|--------------------------------------------------------------777-3--|
E|---------------------------------------------------------------------|

e|-----|-----|
B|-----|-----|
G|-----|--6--|
D|--4--|--6--|
A|--4--|--4--|
E|--2--|-----|

Riff 3D x1
e|---------------------------------------------------------------------|
B|------------------------------------------666-555--------------------|
G|---------5--------5-----6--------6----------------555-444---------5--|
D|--333333---333333---333---333333---333333-----------------666-----5--|
A|--------------------------------------------------------------777-3--|
E|---------------------------------------------------------------------|

e|-----|-----|
B|-----|-----|
G|-----|-----|
D|--5--|--4--|
A|--5--|--4--|
E|--3--|--2--|

            TIME- 1:15

Riff 4 x1
e|---------------|---------------------|-------------|
B|---------------|---------------------|-------------|
G|---------------|--5-4-8-7------------|--8---7---6--|
D|--6------------|--5-4-8-7------------|--6---5---4--|
A|--6------------|--3-2-6-5-555555555--|-------------|
E|--4-444444444--|---------------------|-------------|
      .........             .........

e|---------------|---------------------|-------------|
B|---------------|---------------------|-------------|
G|---------------|--5-4-8-7------------|-------------|
D|--6------------|--5-4-8-7------------|--6---5---4--|
A|--6------------|--3-2-6-5-555555555--|--4---3---2--|
E|--4-444444444--|---------------------|-------------|
      .........             .........

e|---------------|-----------|-----|
B|---------------|-----------|-----|
G|---------------|--5-4-8-7--|-----|
D|--6------------|--5-4-8-7--|--3--|
A|--6------------|--3-2-6-5--|--3--|
E|--4-444444444--|-----------|--1--|
      .........

            TIME- 1:25

            No guitar...

            TIME- 1:31

Riff 5A x3
e|-----------------------|--5---6-----7-6---10\--|
B|--------------7654-----|---43--54-6------------|
G|------------------767--|-----------------------|
D|--654-654-654----------|-----------------------|
A|-----------------------|-----------------------|
E|-----------------------|-----------------------|

Riff 5B x1
e|-----------------------|--5---6-----7-6--|
B|--------------7654-----|---43--54-6------|
G|------------------767--|-----------------|
D|--654-654-654----------|-----------------|
A|-----------------------|-----------------|
E|-----------------------|-----------------|

            TIME- 1:44

Riff 6A x4
e|--------------------------|
B|--------------------------|
G|-------------------3---2--|
D|---------------3----------|
A|--111111111111---1---1----|
E|--------------------------|
    ............

Riff 6B x3
e|--------------------------|
B|--------------------------|
G|--------------------------|
D|-------------------4---3--|
A|---------------4----------|
E|--222222222222---2---2----|
    ............

            TIME- 1:56

Fill 1 x1
e|---------------------|
B|---------------------|
G|---------------------|
D|--3--3-3-3-3---3--4--|
A|--3--3-3-3-3---3--4--|
E|--1--1-1-1-1---3--2--|

Fig. 2 x2
   Guitar 1
 e|---------------------------------|
 B|---------------------------------|
 G|---------------------------------|
 D|--5------5--------5--------5--5--|
 A|--5------5--------5--------5--5--|
 E|--3--3-3-3--3-3-3-3--3-3-3-3--3--|
        . .    . . .    . . .

   Guitar 2
 e|---------------------------------|
 B|---------------------------------|
 G|---------------------------------|
 D|------------------------------5--|
 A|------------------4-----3--------|
 E|---------------------------------|

   Guitar 1
 e|------------------------------|
 B|------------------------------|
 G|------------------------------|
 D|------5--------5---------5-5--|
 A|------5--------5---------5-5--|
 E|--3-3-3--3-3-3-3---3-3-3-3-3--|
     . .    . . .     . . .

   Guitar 2
 e|------------------------------|
 B|------------------------------|
 G|------------------------------|
 D|---------------------------5--|
 A|---------------4-----3--------|
 E|------------------------------|

            TIME- 2:08

Fig. 3 x1
e|--------------|-------------------|------------|---------------------|
B|--------------|-------------------|------------|---------------------|
G|--------------|-------------------|------------|---------------------|
D|--2-------9---|-------------------|--------9---|---------------------|
A|--2-------7\--|----------2---3----|--------7\--|----------2---3------|
E|--0--0-0------|--0-3-0-0---0---0--|--0-0-0-----|--0-3-0-0---0---3-2--|
       . .         .   . .   .   .     . . .        .   . .   .

e|--------------|-------------------|------------|-----------------|
B|--------------|-------------------|------------|-----------------|
G|--------------|-------------------|------------|-----------------|
D|--2-------9---|-------------------|--------9---|----------4---5--|
A|--2-------7\--|----------2---3----|--------7\--|----3------------|
E|--0--0-0------|--0-3-0-0---0---0--|--0-0-0-----|--0---0-0---0----|
       . .         .   . .   .   .     . . .        .   . .   .

Fig. 4 x1
e|-----------------------------|------------------------|
B|-----------------------------|------------------------|
G|-----------------------------|------------------------|
D|--4------4-4-----------------|--2---2-2-2-2---2----2--|
A|--4------4-4--------------3--|--2---2-2-2-2---2----2--|
E|--2--2-2-2-2--2-2-2-4-2-2----|--0---0-0-0-0---0----0--|

            TIME- 2:21

            Both guitars solo for a while, and I don't play leads...

            TIME- 2:59

Riff 6A x4
e|--------------------------|
B|--------------------------|
G|-------------------3---2--|
D|---------------3----------|
A|--111111111111---1---1----|
E|--------------------------|
    ............

Riff 6B x2
e|--------------------------|
B|--------------------------|
G|--------------------------|
D|-------------------4---3--|
A|---------------4----------|
E|--222222222222---2---2----|
    ............

Riff 6C x2
e|--------------------------|
B|-------------------7---6--|
G|---------------6----------|
D|--444444444444---4---4----|
A|--------------------------|
E|--------------------------|
    ............

            TIME- 3:12

Riff 3A x1
e|---------------------------------------------------------------------|
B|------------------------------------------555-444--------------------|
G|---------4--------4-----5--------5----------------444-333---------4--|
D|--222222---222222---222---222222---222222-----------------555-----4--|
A|--------------------------------------------------------------666-2--|
E|---------------------------------------------------------------------|

e|-----|-----|
B|-----|-----|
G|-----|--5--|
D|--4--|--5--|
A|--4--|--3--|
E|--2--|-----|

Riff 3B x1
e|---------------------------------------------------------------------|
B|------------------------------------------555-444--------------------|
G|---------4--------4-----5--------5----------------444-333---------4--|
D|--222222---222222---222---222222---222222-----------------555-----4--|
A|--------------------------------------------------------------666-2--|
E|---------------------------------------------------------------------|

e|-----|-----|
B|-----|-----|
G|-----|-----|
D|--4--|--3--|
A|--4--|--3--|
E|--2--|--1--|

Riff 3C x1
e|---------------------------------------------------------------------|
B|------------------------------------------666-555--------------------|
G|---------5--------5-----6--------6----------------555-444---------5--|
D|--333333---333333---333---333333---333333-----------------666-----5--|
A|--------------------------------------------------------------777-3--|
E|---------------------------------------------------------------------|

e|-----|-----|
B|-----|-----|
G|-----|--6--|
D|--4--|--6--|
A|--4--|--4--|
E|--2--|-----|

Riff 3D x1
e|---------------------------------------------------------------------|
B|------------------------------------------666-555--------------------|
G|---------5--------5-----6--------6----------------555-444---------5--|
D|--333333---333333---333---333333---333333-----------------666-----5--|
A|--------------------------------------------------------------777-3--|
E|---------------------------------------------------------------------|

e|-----|-----|
B|-----|-----|
G|-----|-----|
D|--5--|--4--|
A|--5--|--4--|
E|--3--|--2--|

            TIME- 3:38

Riff 4 x1
e|---------------|---------------------|-------------|
B|---------------|---------------------|-------------|
G|---------------|--5-4-8-7------------|--8---7---6--|
D|--6------------|--5-4-8-7------------|--6---5---4--|
A|--6------------|--3-2-6-5-555555555--|-------------|
E|--4-444444444--|---------------------|-------------|
      .........             .........

e|---------------|---------------------|-------------|
B|---------------|---------------------|-------------|
G|---------------|--5-4-8-7------------|-------------|
D|--6------------|--5-4-8-7------------|--6---5---4--|
A|--6------------|--3-2-6-5-555555555--|--4---3---2--|
E|--4-444444444--|---------------------|-------------|
      .........             .........

e|---------------|-----------|-----|
B|---------------|-----------|-----|
G|---------------|--5-4-8-7--|-----|
D|--6------------|--5-4-8-7--|--3--|
A|--6------------|--3-2-6-5--|--3--|
E|--4-444444444--|-----------|--1--|
      .........

            TIME- 3:48

Hit this chord 9x
e|-----|
B|-----|
G|-----|
D|--2--|
A|--2--|
E|--0--|

            TIME- 3:56

Riff 1B x1 (Again, might as well call this the outro)
e|---------------------------------|----------------------------------|
B|---------------------------------|----------------------------------|
G|---------------------------------|------5-----7-----9-----10-----9--|
D|------3-----5-----7-----8-----7--|--0-3---3-5---5-7---7-8----8-7----|
A|--0-1---1-3---3-5---5-6---6-5----|----------------------------------|
E|---------------------------------|----------------------------------|

e|---------------------------------|-------------------------------|
B|---------------------------------|-------------------------------|
G|---------------------------------|----5-----3-----7-----5-----8--|
D|------3-----5-----7-----8-----7--|--3---3-1---1-5---5-3---5-6----|
A|--0-1---1-3---3-5---5-6---6-5----|-------------------------------|
E|---------------------------------|-------------------------------|

            TIME- 4:03

  Visit MetalTabs.com for more metal tablature

bottom separator

Contact Us | Privacy Policy | Disclaimer | Legal Notice
Copyright © 2001-2014 MetalTabs.com. All Rights Reserved.