top separator

Home

Forum

What's New

Submit a Tab

FAQ

Links

Contact Us

Link to Us

MuSpy.com

MetalTabs.com logo

Bands

0-9

A

B

C

D

E

F

G

H

I

J

K

L

M

N

O

P

Q

R

S

T

U

V

W

X

Y

Z

Search

What

Where
 

Bolt Thrower - "Crown Of Life" Guitar Tab

Plain Text Version
More Bolt Thrower Tabs

Hits: 3711
Updated: 2004-07-06 05:29:33

 

By:

johnnyturbo3

sendpm.gif

email.gif

Important note
This tab is available online because we obtained explicit permission from Bolt Thrower or their label.


#----------------------------------PLEASE NOTE---------------------------------#
#This file is the author's own work and represents their interpretation of the #
#song. You may only use this file for private study, scholarship, or research. #
#Unless specified otherwise, this is NOT an official tab from the band members.#
#------------------------------------------------------------------------------#

  Visit MetalTabs.com for more metal tablature
  
Bolt Thrower
"Crown of Life"

Album:Spearhead EP (Earache)

Version: 1.0

Transcribed by: Nathan Flynn (johnnyturbo3uk@yahoo.co.uk)

Tuning (low to high): C# F# B E G# C#

1.5 Steps Down


Riff A (Intro)
C#]---------------------------]
G#]---------------------------]
E ]---------------------------]
B ]--------2------------------]
F#]-2----2-0---3------3-2-3-5-]
C#]-0----0-----1------1-0-1-3-]

Riff B (0:44)
C#]---------------------------------------------------]
G#]---------------------------------------------------]
E ]---------------------------------------------------]
B ]---------------------------------------------------]
F#]-----------------6--7-3-------------------6--5-6-3-]
C#]-0-0-000-0-0-000-4--5-1---0-0-000-0-0-000-4--3-4-1-]

Riff C (1:19)
C#]-------------------------------]
G#]-------------------------------]
E ]-------------------------------]
B ]-------------------------------]
F#]------8-7---11-10-----8-7------]
C#]-000--------------000------5-6-]

Riff D (1:57)
C#]---------------------------------------------------------------------------]
G#]---------------------------------------------------------------------------]
E ]---------------------------------------------------------------------------]
B ]---------------------------------------------------------------------------]
F#]-------------------------------------------------------------4444----------]
C#]-00000-1111-4444-3333-6666-3333-4444-00000000-1111-4444-3333------3333-4444]

Riff E (2:50)
C#]------------------------------------------]
G#]------------------------------------------]
E ]------------------------------------------]
B ]----2-3-2--1----1-------2-3-2--4-5-4--2-5-]
F#]-2------------3---3--2--------------------]
C#]-0-------------------0--------------------]

Riff F (3:12)
C#]---------------------------------------------------------------]
G#]---------------------------------------------------------------]
E ]---------------------------------------------------------------]
B ]------6p5-3-6-5------6p5-3-5-3-------6p5-3-6-5-------6p5-3---3-]
F#]-----------------------------------------------------------4---]
C#]-0-0------------0-0-------------0-0-------------0-0------------]

Riff G (4:17)
C#]----------------------------------------------------------------]
G#]----------------------------------------------------------------]
E ]----------------------------------------------------------------]
B ]--------------------------------------------------------------3-]
F#]-2------5-7---2------5-7---2------5-7---2------5-7---2--5-2-5---]
C#]-0--0-0-------0--0-0-------0--0-0-------0--0-0-------0----------]

Riff H (4:39)
C#]-------------------------------------------------]
G#]-------------------------------------------------]
E ]-------------------------------------------------]
B ]---------7-9---------7-9---------7-9-------------]
F#]-2------------2-----------2-----------2--5-2-5-1-]
C#]-0--0-0-------0--0-0------0--0-0------0----------]

Outro=Riff C (5:20)



Im sure we all know how the song goes so listen for the rhythm
and the palm mutes etc etc...

Any corrections, etc, are welcome.

  Visit MetalTabs.com for more metal tablature

bottom separator

Contact Us | Privacy Policy | Disclaimer | Legal Notice
Copyright © 2001-2014 MetalTabs.com. All Rights Reserved.