top separator

Home

Forum

What's New

Submit a Tab

FAQ

Links

Contact Us

Link to Us

MuSpy.com

MetalTabs.com logo

Bands

0-9

A

B

C

D

E

F

G

H

I

J

K

L

M

N

O

P

Q

R

S

T

U

V

W

X

Y

Z

Search

What

Where
 

Finntroll - "Skog" Guitar Tab

Plain Text Version
More Finntroll Tabs

Hits: 5499
Rated: 5.00 out of 5 (2 votes)
Updated: 2004-07-05 06:56:50

 

By:

Darkenelf

sendpm.gif

email.gif

Important note
This tab is available online because we obtained explicit permission from Finntroll or their label.


#----------------------------------PLEASE NOTE---------------------------------#
#This file is the author's own work and represents their interpretation of the #
#song. You may only use this file for private study, scholarship, or research. #
#Unless specified otherwise, this is NOT an official tab from the band members.#
#------------------------------------------------------------------------------#

  Visit MetalTabs.com for more metal tablature
  
Band: Finntroll
Album: Trollhammaren
Song: Skog
Tabbed by: Martijn Wietsma
Tab Date: 03-07-2004
Email: northerland@yahoo.co.uk

Standard E Tuning

riff A
|-------------------------------------------------|
|-------------------------------------------------|
|-------------------------------------------------|(4x)
|-------------------------------------------------|
|-4-4-4-------4-4-7-------------------------------|
|-2-4-2-0h2h3-2-4-5-4h5p4p2-----------------------|

riff B (keyboard)

riff C (keyboard)

repeat riff A 4x

riff D
|-------------------------------------------------|
|-------------------------------------------------|
|-------------------------------------------------|
|-------------2-----------------------------------|
|-4--44-44--5-2-----4--44-44--7-3-----------------|
|-2--22-22--3-0-----2--22-22--5-1-----------------|
  .  .. ..          .  .. ..

|-------------------------------------------------|
|-------------------------------------------------|
|-------------------------------------------------|
|-------------2-----------------------------------|
|-4--44-44--5-2-----4--44-44--(keyboard)----------|
|-2--22-22--3-0-----2--22-22----------------------|
  .  .. ..          .  .. ..

repeat riff D 1x

riff E (0:51)
|-------------------------------------------------|
|-------------------------------------------------|
|-------------------------------------------------|(4x)
|-------------------------------------------------|
|-------------------------------------------------|
|-2~-5p4p2p0~-3-----------------------------------|

riff F (keyboard)

repeat riff A 4x (1:01)
repeat riff D 2x (1:15)

riff G (1:29)
|-------------------------------------------------|
|-------------------------------------------------|
|-------------------------------------------------|(3x)
|--------------6-----6-6--------------------------|
|-5--------5---4-444-4-4--------------------------|
|-3-333-33-3--------------------------------------|
    ... ..       ...

|-------------------------------------------------|
|-------------------------------------------------|
|-------------------------------------------------|(1x)
|-------------2-2-2-2-----------------------------|
|-5--------5--2-2-2-2-----------------------------|
|-3-333-33-3--0-0-0-0-----------------------------|
    ... ..

repeat riff G 1x

repeat riff A 2x (1st guitar) (1:56)
repeat riff A 4x (both guitars)
repeat riff B (keyboard riff)
repeat riff D 2x (2:24)

riff H (keyboard riff) (2:38)

repeat riff A 4x (3:05)

riff I (3:19)
|-------------------------------------------------|
|-------------------------------------------------|
|-------------------------------------------------|
|-------------------------------------------------|
|-7--------4--------------------------------------|
|-5-4h5p4p-2--------------------------------------|

(end of song)

  Visit MetalTabs.com for more metal tablature

bottom separator

Contact Us | Privacy Policy | Disclaimer | Legal Notice
Copyright © 2001-2014 MetalTabs.com. All Rights Reserved.