top separator

Home

Forum

What's New

Submit a Tab

FAQ

Links

Contact Us

Link to Us

MuSpy.com

MetalTabs.com logo

Bands

0-9

A

B

C

D

E

F

G

H

I

J

K

L

M

N

O

P

Q

R

S

T

U

V

W

X

Y

Z

Search

What

Where
 

Bolt Thrower - "Where Next To Conquer" Guitar Tab

Plain Text Version
More Bolt Thrower Tabs

Hits: 5676
Rated: 5.00 out of 5 (1 vote)
Updated: 2004-07-06 05:23:32

 

By:

johnnyturbo3

sendpm.gif

email.gif

Important note
This tab is available online because we obtained explicit permission from Bolt Thrower or their label.


#----------------------------------PLEASE NOTE---------------------------------#
#This file is the author's own work and represents their interpretation of the #
#song. You may only use this file for private study, scholarship, or research. #
#Unless specified otherwise, this is NOT an official tab from the band members.#
#------------------------------------------------------------------------------#

  Visit MetalTabs.com for more metal tablature
  
Bolt Thrower

Where Next To Conquer

Album:The IV Crusade

Version: 1.1

Transcribed by: Nathan Flynn (johnnyturbo3uk@yahoo.co.uk)

Tuning (low to high): C# F# B E G# C#

1.5 Steps Down

Riff A (Intro)
C#]----------------------]
G#]----------------------]
E ]----------------------]
B ]---------0-2-3-0-3-6-3]
F#]--2--2-2--------------]
C#]--0--0-0--------------]


Riff B (0:28)
C#]--------------------------------------]
G#]--------------------------------------]
E ]--------------------------------------]
B ]---------9-7--6-7-9---------9-7--6-7-6]
F#]--2--2-2------------2--2-2------------]
C#]--0--0-0------------0--0-0------------]



Riff C (0:56)
C#]---------------------------]
G#]---------------------------]
E ]---------------------------]
B ]-------3-6-3-------3-2-3p2~]
F#]---------------------------]
C#]-00000-------00000---------]


Riff D (1:25)
C#]---------------------------------------------------]
G#]---------------------------------------------------]
E ]---------------------------------------------------]
B ]--------0-2----------------------0-2---------------]
F#]-111111-----5-2222-5-2222-111111-----5-22222-522222]
C#]---------------------------------------------------]


Riff E (1:34)
C#]-------------------]
G#]-------------------]
E ]-------------------]
B ]--------0-2-3-2-3-0]
F#]-------------------]
C#]-000000------------]

Little Solo (2:31)

C#]----------------------------------------------------]
G#]-12~---13-12~---13-12-10-9~-10-9--------------------]
E ]---------------------------------10-9~---9~---10-9~-]
B ]----------------------------------------------------]
F#]----------------------------------------------------]
C#]----------------------------------------------------]

C#]---------------------------------------------------------]
G#]-----9-10-12-10-12-13-12-13-15-13-12----12-15--13--13-12~]
E ]-9-10----------------------------------------------------]
B ]---------------------------------------------------------]
F#]---------------------------------------------------------]
C#]---------------------------------------------------------]

Im sure we all know how the song goes so listen for the rhythm
and the palm mutes etc etc...


Any corrections, etc, are welcome.

  Visit MetalTabs.com for more metal tablature

bottom separator

Contact Us | Privacy Policy | Disclaimer | Legal Notice
Copyright © 2001-2014 MetalTabs.com. All Rights Reserved.