top separator

Home

Forum

What's New

Submit a Tab

FAQ

Links

Contact Us

Link to Us

MuSpy.com

MetalTabs.com logo

Bands

0-9

A

B

C

D

E

F

G

H

I

J

K

L

M

N

O

P

Q

R

S

T

U

V

W

X

Y

Z

Search

What

Where
 

Disciples of Berkowitz - "I Hate" Guitar Tab

Plain Text Version
More Disciples of Berkowitz Tabs

Hits: 2973
Rated: 5.00 out of 5 (1 vote)
Updated: 2004-07-05 06:54:18

 

By:

xjustin518x

sendpm.gif

email.gif

Important note
We did our best to reach Disciples of Berkowitz and ask for their permission to publish this tab. Unfortunately they did not respond to our requests or we could not find a way to contact them. This tab is available online until Disciples of Berkowitz tells us to take it down.


#----------------------------------PLEASE NOTE---------------------------------#
#This file is the author's own work and represents their interpretation of the #
#song. You may only use this file for private study, scholarship, or research. #
#Unless specified otherwise, this is NOT an official tab from the band members.#
#------------------------------------------------------------------------------#

  Visit MetalTabs.com for more metal tablature
  
Author/Artist: Disciples of Berkowitz
Title: I Hate
Album: Chronicles:1995-2002
Tuning: 1 step down (D,G,C,F,A,D)
Transcribed by: Justin LaValley
Email: justin518@verizonmail.com
Part 1
0:18 - 0:46
|------------||---------------------------||
|------------||---------------------------||
|------------||---------------------------||
|------------||3/5-55-5/6-66-6/8-88-8\6-66||
|-22-22-22-2-||1/3-33-3/4-44-4/6-66-6\4-44||
|-00-00-00-0-||1/3-33-3/4-44-4/6-66-6\4-44||
  .. .. .. .       ..     ..     ..     ..

part 2
0:47 - 1:08
|-----------||
|-----------||
|-----------||
|--10-9-----||
|--8--7-----||
|--8--7-----||

part 3
1:09 - 1:33
             1.2.3      4
-|----------||---------|-----------||
-|----------||---------|-----------||
-|----------||---------|-----------||
-|----------||9-9/10\9-|--9--------||
-|----------||7-7/8\7--|--7-10-10\9||
-|-00000000-||7-7/8\7--|--7-8--8\7-||
   ........
part 4
1:34 - 1:55

||---------------||
||---------------||
||---------------||
||-5---4---3---7-||
||-5---4---3---7-||
||-3---2---1---5-||

repeat part 3  1:56 - 2:19

repeat part 4  2:20 - 2:42


part 5
2:42 -           2:51 - 3:23
||-------------||---------------------|-------------------||
||-------------||---------------------|-------------------||
||-------------||---------------------|-------------------||
||-------------||---------------------|-------------------||
||-------------||-22-3-22-4-22-4- 8-7-|-22-3-22-4-22--8-7-||
||-00-00-00-00-||-00-1-00-2-00-2--6-5-|-00-1-00-2-00--6-5-||
   .. .. .. ..    ..   ..   ..          ..   ..   ..

repeat part 1 3:24 - 3:51

repeat part 2 3:52 - 4:01

repeat part 3 4:01 - end

  Visit MetalTabs.com for more metal tablature

bottom separator

Contact Us | Privacy Policy | Disclaimer | Legal Notice
Copyright © 2001-2014 MetalTabs.com. All Rights Reserved.