top separator

Home

Forum

What's New

Submit a Tab

FAQ

Links

Contact Us

Link to Us

MuSpy.com

MetalTabs.com logo

Bands

0-9

A

B

C

D

E

F

G

H

I

J

K

L

M

N

O

P

Q

R

S

T

U

V

W

X

Y

Z

Search

What

Where
 

Finntroll - "Krigsmjöd" Guitar Tab

Plain Text Version
More Finntroll Tabs

Hits: 5281
Rated: 5.00 out of 5 (1 vote)
Updated: 2004-07-05 06:53:03

 

By:

Darkenelf

sendpm.gif

email.gif

Important note
This tab is available online because we obtained explicit permission from Finntroll or their label.


#----------------------------------PLEASE NOTE---------------------------------#
#This file is the author's own work and represents their interpretation of the #
#song. You may only use this file for private study, scholarship, or research. #
#Unless specified otherwise, this is NOT an official tab from the band members.#
#------------------------------------------------------------------------------#

  Visit MetalTabs.com for more metal tablature
  
Band: Finntroll
Album: Jaktens Tid
Song: Krigsmjöd
Tabbed by: Martijn Wietsma
Tab Date: 03-07-2004
Email: northerland@yahoo.co.uk

Standard E Tuning

riff A
|------------------------------------------------|
|------------------------------------------------|
|------------------------------------------------|
|------------------------------------------------|
|-44-44-44-44-4444--44-44-44-44-4444-------------|
|-22-22-22-22-2222--22-22-22-22-2222-------------|
  .. .. .. .. ....  .. .. .. .. ....

riff B (0:06)
|------------------------------------------------|
|------------------------------------------------|
|------------------------------------------------|(2x)
|------------------------------------------------|
|-44-44-44-44-4444--44-44-44-44-4444-------------|
|-22-22-22-22-2222--22-22-22-22-2222-------------|
  .  .  .  .  .     .  .  .  .  .

riff C (0:17)
|------------------------------------------------|
|------------------------------------------------|
|------------------------------------------------|
|------------------------------------------------|
|-4~---------------------------------------------|
|-2----------------------------------------------|

riff D (0:23)
|------------------------------------------------|
|---------------(guitar)-------------------------|
|(keyboard)--------------------------------------|
|--------------------4---------------------------|
|----3~----------6-7-2---------------------------|
|-2~----2~-------4-5-----------------------------|

riff E (0:27)
|------------------------------------------------|
|------------------------------------------------|
|------------------------------------------------|(2x)
|----------------------2h---4--------------------|
|-2------2------2h4h5-----4----------------------|
|---555----555-----------------------------------|
    ...    ...

repeat riff D 1x (0:33)
repeat riff E 2x (0:38)

riff F (0:44)
|------------------------------------------------|
|------------------------------------------------|
|-------------------4--6~------------------------|(2x)
|----------4--6--7--2--4-------------------------|
|-4--6--7--2--4--5-------------------------------|
|-2--4--5----------------------------------------|

repeat riff E 4x (1:05)

riff G (1:15)
|------------------------------------------------|
|------------------------------------------------|
|------------------------------------------------|(3x)
|----------------------2-------------------------|
|----4----4----4---4-5-2-------------------------|
|-22-2-22-2-22-2-0-2-3-0-------------------------|
  ..   ..   ..   .

|------------------------------------------------|
|------------------------------------------------|
|------------------------------------------------|(1x)
|------------2-----------------------------------|
|----4----4--2-5---------------------------------|
|-22-2-22-2--0-3---------------------------------|
  ..   ..

repeat riff G 2x
repeat riff B 2x (1:48)

riff H (2:00)
|------------------------------------------------|
|------------------------------------------------|
|------------------------------------------------|
|----4-------------------------------------------|
|-7--2--4-----4------4------4----4---------------|
|-5-----2-222-2--222-2--222-2--2-2---------------|

|------------------------------------------------|
|------------------------------------------------|
|------------------------------------------------|
|----9-------------------------------------------|
|-7--7--4-----4------4------4----4---------------|
|-5-----2-222-2--222-2--222-2--2-2---------------|

repeat riff F 2x (2:11)
repeat riff E 4x (2:32)
repeat riff G 2x (2:42)
repeat riff C 1x

(end of song)

  Visit MetalTabs.com for more metal tablature

bottom separator

Contact Us | Privacy Policy | Disclaimer | Legal Notice
Copyright © 2001-2014 MetalTabs.com. All Rights Reserved.