top separator

Home

Forum

What's New

Submit a Tab

FAQ

Links

Contact Us

Link to Us

MuSpy.com

MetalTabs.com logo

Bands

0-9

A

B

C

D

E

F

G

H

I

J

K

L

M

N

O

P

Q

R

S

T

U

V

W

X

Y

Z

Search

What

Where
 

Finntroll - "Segersång" Guitar Tab

Plain Text Version
More Finntroll Tabs

Hits: 4242
Rated: 5.00 out of 5 (1 vote)
Updated: 2004-07-05 06:52:55

 

By:

Darkenelf

sendpm.gif

email.gif

Important note
This tab is available online because we obtained explicit permission from Finntroll or their label.


#----------------------------------PLEASE NOTE---------------------------------#
#This file is the author's own work and represents their interpretation of the #
#song. You may only use this file for private study, scholarship, or research. #
#Unless specified otherwise, this is NOT an official tab from the band members.#
#------------------------------------------------------------------------------#

  Visit MetalTabs.com for more metal tablature
  
Band: Finntroll
Album: Midnattens Widunder
Song: Segersång
Tabbed by: Martijn Wietsma
Tab date: 03-07-2004
Email: northerland@yahoo.co.uk

(kb) = keyboard

riff A
|---------------------------------------------------|
|---------------------------------------------------|
|---------------------------------------------------|
|-------------9-------------------------------------|
|-7-6-4-4-5~--7-------------------------------------|
|-5-4-2-4-5-----------------------------------------|

riff B (0:03)
|--------------------------------------------------------|
|--------------------------------------------------------|
|--------------------------------------------------------|(4x)
|------------------------------9-11-11-11-11-11-11-11-11-|
|-44444444-7--4444-7-6-4-4-5~--7--9--9--9--9--9--9--9--9-|
|-22222222-5--2222-5-4-2-4-5-----------------------------|

riff C (0:37)
|------------------------------------------------------------|
|-(kb)----(kb)-----------(kb)---(kb)-------------------------|
|------------------------------------------------------------|
|-----------------------------9------11-11-11-11-11-11-11-11-|
|------7-------7-6-4-4-5------7------------------------------|
|------5-------5-4-2-4-5-------------------------------------|

riff D (0:45)
|---------------------------------------------------|
|---------------------------------------------------|
|---------------------------------------------------|(2x)
|-4-----4p2-----------------------------------------|
|-2--7------5p4p2h----2h4---------------------------|
|----5-------------5p-------------------------------|

riff E (solo) (0:54)
|-----7---------7-----------------------------------|
|---7---7-8p7p5---8-----2-5-2-(too fast part)-------|
|-4-------------------2-----------------------------|(4x)
|---------------------------------------------------|
|---------------------------------------------------|
|---------------------------------------------------|

riff F (1:12)
|---------------------------------------------------|
|---------------------------------------------------|
|---------------------------------------------------|(4x)
|------------9~--11~--------------------------------|
|-7-6-4-4-5--7----9---------------------------------|
|-5-4-2-4-5-----------------------------------------|

repeat riff B 4x (1:36)

(end of song)

  Visit MetalTabs.com for more metal tablature

bottom separator

Contact Us | Privacy Policy | Disclaimer | Legal Notice
Copyright © 2001-2014 MetalTabs.com. All Rights Reserved.