top separator

Home

Forum

What's New

Submit a Tab

FAQ

Links

Contact Us

Link to Us

MetalTabs.com logo

Bands

0-9

A

B

C

D

E

F

G

H

I

J

K

L

M

N

O

P

Q

R

S

T

U

V

W

X

Y

Z

Search

What

Where
 

Einherjer - "Ingen Grid" Guitar Tab

Plain Text Version
More Einherjer Tabs

Hits: 5097
Rated: 4.50 out of 5 (2 votes)
Updated: 2004-07-04 08:13:10

 

By:

Darkenelf

sendpm.gif

email.gif

Important note
This tab is available online because we obtained explicit permission from Einherjer or their label.


#----------------------------------PLEASE NOTE---------------------------------#
#This file is the author's own work and represents their interpretation of the #
#song. You may only use this file for private study, scholarship, or research. #
#Unless specified otherwise, this is NOT an official tab from the band members.#
#------------------------------------------------------------------------------#

  Visit MetalTabs.com for more metal tablature
  
Band: Einherjer
Album: Blot
Song: Ingen Grid
Tabbed by: Martijn Wietsma
Tab Date: 02-07-2004
Email: northerland@yahoo.co.uk

Standard E Tuning

riff A (acoustic)
|------------------------------------------------------|
|----12-------12-------12-------12-----12--------------|
|----11-------11-------11-------11-----11--------------|
|-----------------------------------0-----0-----9-9-7--|
|---------2-----------------2--------------------------|
|-0----------------0-----------------------------------|

repeat riff A 2x

riff B (0:14)
|------------------------------------------------------|
|------------------------------------------------------|
|----9-11--12p11p9--------11-9-------------------------|(2x)
|-12-----------------9-12------------------------------|
|------------------------------------------------------|
|------------------------------------------------------|

riff C (0:24)
|------------------------------------------------------|
|------------------------------------------------------|
|-9-11-12--11-9p-----9p--------------------------------|(1x)
|----------------12-----12-10--------------------------|
|------------------------------------------------------|
|------------------------------------------------------|

repeat riff B 2x (0:30)
repeat riff C 1x (0:40)
repeat riff B 2x (0:46)
repeat riff C 1x (0:56)

riff D (1:01)
|------------------------------------------------------|
|------------------------------------------------------|
|------------------------------------------------------|(1x)
|------------------------------------------------------|
|-2-2--2--2-2-2--2-2--2-2--2-2--2----------------------|
|-0-0--0--0-0-0--0-0--0-0--0-0--0----------------------|
  . .  .  . . .  . .  . .  . .

riff E (1:09)
|------------------------------------------------------|
|------------------------------------------------------|
|------------------------------------------------------|(2x)
|-------------------4--444-----------------------------|
|-2--222---7--777---2--222-----------------------------|
|-0--000---5--555--------------------------------------|
  .  ...   .  ...   .  ...

riff F (1:16)
|------------------------------------------------------|
|------------------------------------------------------|
|------------------------------------------------------|(1x)
|------------------------------------------------------|
|-7--777---7--777---2--222---2--222--------------------|
|-5--555---5--555---0--000---0--000--------------------|
  .  ...   .  ...   .  ...   .  ...

riff G (1:22)
|------------------------------------------------------|
|------------------------------------------------------|
|------------------------------------------------------|(1x)
|-7--777---7--777--------------------------------------|
|-5--555---5--555---7--777---7--777--------------------|
|-------------------5--555---5--555--------------------|
  .  ...   .  ...   .  ...   .  ...

riff H (1:27)
|------------------------------------------------------|
|------------------------------------------------------|
|------------------------------------------------------|(1x)
|----------4--444------------4-------------------------|
|-5--555---2--222---2--222---2-------------------------|
|-3--333------------0--000-----------------------------|
  .  ...   .  ...   .  ...

riff I (solo 1) (1:32)
|------------------------------------------------------|
|-8~-8p7p5-7~------5--5---5----------------------------|
|-------------4~--------7---7-5-4----------------------|
|------------------------------------------------------|
|------------------------------------------------------|
|------------------------------------------------------|

riff J (1:42)
|------------------------------------------------------|
|-5--5---5----------5-8---5h7h8-7-5~-------------------|
|------7---7-5----5------------------------------------|
|---------------7--------------------------------------|
|------------------------------------------------------|
|------------------------------------------------------|

riff K (solo 2) (1:55)
|-7~-7p5h---------5--5-------------7~------------------|
|---------8p7~--8------8p7h8p7p5~----------------------|
|------------------------------------------------------|
|------------------------------------------------------|
|------------------------------------------------------|
|------------------------------------------------------|

riff L (solo 3) (2:08)
|------------7--------------------10-----7~------------|
|-5h7h8--5h7------5----5h7h8--5h7-----10---------------|
|---------------7--------------------------------------|
|------------------------------------------------------|
|------------------------------------------------------|
|------------------------------------------------------|

riff M (2:18)
|-8-8--------------------------------------------------|
|-----7-8p7--5h----------------------------------------|
|---------------7--------------------------------------|
|------------------9p7h--------------------------------|
|-----------------------10p9p7~------------------------|
|------------------------------------------------------|

repeat riff L 1x (2:25)
repeat riff M 1x (2:34)

riff N (2:40) (solo 4)
|------------7--------------------10--12-12~-----------|
|-5h7h8--5h7------5----5h7h8--5h7----------------------|
|---------------7--------------------------------------|
|------------------------------------------------------|
|------------------------------------------------------|
|------------------------------------------------------|

riff O (2:51)
|-10-8------8-7----------------------------------------|
|------12-------10-------------------------------------|
|-------------------9~---------------------------------|
|------------------------------------------------------|
|------------------------------------------------------|
|------------------------------------------------------|

repeat riff A 2x (2:55)
|------------------------------------------------------|
|----12-------12-------12-------12-----12--------------|
|----11-------11-------11-------11-----11--------------|
|-----------------------------------0-----0------------|
|---------2-----------------2--------------------------|
|-0----------------0-----------------------------------|

repeat riff D 4x (3:06)
repeat riff E 2x (3:10)
repeat riff F 1x
repeat riff G 1x
repeat riff H 1x
repeat riff N 1x

(end of song)

  Visit MetalTabs.com for more metal tablature

bottom separator

Contact Us | Privacy Policy | Disclaimer | Legal Notice
Copyright © 2001-2014 MetalTabs.com. All Rights Reserved.