top separator

Home

Forum

What's New

Submit a Tab

FAQ

Links

Contact Us

Link to Us

MetalTabs.com logo

Bands

0-9

A

B

C

D

E

F

G

H

I

J

K

L

M

N

O

P

Q

R

S

T

U

V

W

X

Y

Z

Search

What

Where
 

Korpiklaani - "Mother earth" Guitar Tab

Plain Text Version
More Korpiklaani Tabs

Hits: 5053
Rated: 4.50 out of 5 (2 votes)
Updated: 2004-07-04 08:13:04

 

By:

Darkenelf

sendpm.gif

email.gif

Important note
This tab is available online because we obtained explicit permission from Korpiklaani or their label.


#----------------------------------PLEASE NOTE---------------------------------#
#This file is the author's own work and represents their interpretation of the #
#song. You may only use this file for private study, scholarship, or research. #
#Unless specified otherwise, this is NOT an official tab from the band members.#
#------------------------------------------------------------------------------#

  Visit MetalTabs.com for more metal tablature
  
Band: Korpiklaani
Album: Spirit of the Forest
Song: Mother Earth
Tabbed by: Martijn Wietsma
Tab Date: 02-07-2004
Email: northerland@yahoo.co.uk

Standard E Tuning

riff A
|-------------------------------------------------------|
|-------------------------------------------------------|
|-------------------------------------------------------|
|-2~----------------------------------------------------|
|-2-----------------------------------------------------|
|-0-----------------------------------------------------|

riff B (0:07)
|-------------------------------------------------------|
|-------------------------------------------------------|
|-------2-----------------------------------------------|
|-2h4h5---5-4~------------------------------------------|
|-------------------------------------------------------|
|-------------------------------------------------------|

riff C (0:17)
|-------------------------------------------------------|
|-------------------------------------------------------|
|-------2h4---------------------------------------------|
|-2h4h5-----4p2-----------------------------------------|
|-------------------------------------------------------|
|-------------------------------------------------------|

riff D (0:22)
|-------5-7-7--10h12-12--10-7-7--10h12-12--15-17-15-----|
|-5h7h8-------------------------------------------------|
|-------------------------------------------------------|
|-------------------------------------------------------|
|-------------------------------------------------------|
|-------------------------------------------------------|

|-12-10-12-12--15-12~-----------------------------------|
|-------------------------------------------------------|
|-------------------------------------------------------|
|-------------------------------------------------------|
|-------------------------------------------------------|
|-------------------------------------------------------|

repeat riff D 3x

riff E (1:00)
|-19-19--17-15--17-17--15--------17-17--15-----17-19--17-19-|
|-------------------------17--17-----------17---------------|
|-----------------------------------------------------------|(2x)
|-----------------------------------------------------------|
|-----------------------------------------------------------|
|-----------------------------------------------------------|

riff F (1:21)
|-19-17-15-17-15------------15--------------------------|
|-----------------15-17-17-----17-----------------------|
|-------------------------------------------------------|
|-------------------------------------------------------|
|-------------------------------------------------------|
|-------------------------------------------------------|

repeat riff D 4x (1:26)
repeat riff E 2x (2:05)
repeat riff F 1x (2:26)
repeat riff A 1x (2:31) + riff D 2x

riff G (2:51) + riff D 2x
|-------------------------------------------------------|
|-------------------------------------------------------|
|-------------------------------------------------------|
|-4--2--------------------------------------------------|
|-2--2--------------------------------------------------|
|----0--------------------------------------------------|

repeat riff E 2x (3:13)

riff H (3:32)
|-------------------------------------------------------|
|-10-10-8----10-12-12--10-12----------------------------|
|---------9---------------------------------------------|(8x)
|-------------------------------------------------------|
|-------------------------------------------------------|
|-------------------------------------------------------|

(end of song)

  Visit MetalTabs.com for more metal tablature

bottom separator

Contact Us | Privacy Policy | Disclaimer | Legal Notice
Copyright © 2001-2014 MetalTabs.com. All Rights Reserved.