top separator

Home

Forum

What's New

Submit a Tab

FAQ

Links

Contact Us

Link to Us

MuSpy.com

MetalTabs.com logo

Bands

0-9

A

B

C

D

E

F

G

H

I

J

K

L

M

N

O

P

Q

R

S

T

U

V

W

X

Y

Z

Search

What

Where
 

Korpiklaani - "Man can go even throuh the grey stone" Guitar Tab

Plain Text Version
More Korpiklaani Tabs

Hits: 3977
Rated: 5.00 out of 5 (1 vote)
Updated: 2004-07-04 08:12:59

 

By:

Darkenelf

sendpm.gif

email.gif

Important note
This tab is available online because we obtained explicit permission from Korpiklaani or their label.


#----------------------------------PLEASE NOTE---------------------------------#
#This file is the author's own work and represents their interpretation of the #
#song. You may only use this file for private study, scholarship, or research. #
#Unless specified otherwise, this is NOT an official tab from the band members.#
#------------------------------------------------------------------------------#

  Visit MetalTabs.com for more metal tablature
  
Band: Korpiklaani
Album: Spirit of the Forest
Song: Man go even through the Grey Stone
Tabbed by: Martijn Wietsma
Tab Date: 02-07-2004
Email: northerland@yahoo.co.uk

Standard E Tuning

riff A
|-----------------------------------------------|
|-----------------------------------------------|
|-----------------------------------------------|
|-----------------------------------------------|
|-7-777---7-777---------------------------------|
|-5-555---5-555---------------------------------|

riff B (0:02) (it takes some practising!!)
|-----------------------------------------------|
|-----------------------------------------------|
|-----------------------------------------------|(4x)
|---------------------------------7--77---------|
|-7-77--------5p--------10--1010--5--55-5-------|
|-5-55-5h7h8h----8p7p5---8---8-8----------8p7---|
       ...............

riff C (0:19)
|-----------------------------------------------|
|-----------------------------------------------|
|-----------------------------------------------|(2x)
|----------------------------7--77--------------|
|-7--77---7--77---10--1010---5--55--------------|
|-5--55---5--55----8---8-8----------------------|

riff D (0:34)
|-----------------------------------------------|
|-----------------------------------------------|
|-----------------------------------------------|
|--------------------7--------------------------|
|-7-----7-----10-----5--------------------------|
|-5-----5------8--------------------------------|

repeat riff B 4x (0:51)
repeat riff C 2x (1:06)
repeat riff D 2x (1:22)
repeat riff B 8x (1:38)

riff E
|-----------------------------------------------|
|-----------------------------------------------|
|-----------------------------------------------|
|-----------------------------------------------|
|-7---------------------------------------------|
|-5---------------------------------------------|

(end of song)

  Visit MetalTabs.com for more metal tablature

bottom separator

Contact Us | Privacy Policy | Disclaimer | Legal Notice
Copyright © 2001-2014 MetalTabs.com. All Rights Reserved.