top separator

Home

Forum

What's New

Submit a Tab

FAQ

Links

Contact Us

Link to Us

MuSpy.com

MetalTabs.com logo

Bands

0-9

A

B

C

D

E

F

G

H

I

J

K

L

M

N

O

P

Q

R

S

T

U

V

W

X

Y

Z

Search

What

Where
 

Korpiklaani - "Hullunhumppa" Guitar Tab

Plain Text Version
More Korpiklaani Tabs

Hits: 5200
Rated: 5.00 out of 5 (1 vote)
Updated: 2004-07-04 08:12:54

 

By:

Darkenelf

sendpm.gif

email.gif

Important note
This tab is available online because we obtained explicit permission from Korpiklaani or their label.


#----------------------------------PLEASE NOTE---------------------------------#
#This file is the author's own work and represents their interpretation of the #
#song. You may only use this file for private study, scholarship, or research. #
#Unless specified otherwise, this is NOT an official tab from the band members.#
#------------------------------------------------------------------------------#

  Visit MetalTabs.com for more metal tablature
  
Band: Korpiklaani
Album: Spirit of the Forest
Song: Hullunhumppa
Tabbed by: Martijn Wietsma
Tab Date: 02-07-2004
Email: northerland@yahoo.co.uk

Standard E Tuning

riff A
|--------------------------------------------------|
|--------------------------------------------------|
|--------------------------------------------------|(2x)
|-7-77-7-------------------------------------------|
|-5-55-5-5h----7--7-7------------------------------|
|-----------8--5--5-5------------------------------|
    ..            .

riff B (0:13)
|--------------------------------------------------|
|--------------------------------------------------|
|--------------------------------------------------|(4x)
|-7-77-7----------------9-99-9---------9-9---------|
|-5-55-5-5h----7--7-7---7-77-7-5h7h8p5-7-7---------|
|-----------8--5--5-5------------------------------|
    ..            .       ..           .

repeat riff A 2x (0:32)
repeat riff B 4x (0:43)

riff C (1:04)
|--------------------------------------------------|
|--------------------------------------------------|
|--------------------------------------------------|
|-10-9--7-9--7-------------------------------------|
|--8-7--5-7--5-10--7-5-7---------------------------|
|---------------8--5-3-5---------------------------|

|--------------------------------------------------|
|--------------------------------------------------|
|--------------------------------------------------|
|-10-9-7---10-9-7---9-7----------------------------|
|--8-7-5----8-7-5---7-5-10--7-5-7------------------|
|------------------------8--5-3-5------------------|

repeat riff C 1x

repeat riff A 1x (1:26)

(end of song)

  Visit MetalTabs.com for more metal tablature

bottom separator

Contact Us | Privacy Policy | Disclaimer | Legal Notice
Copyright © 2001-2014 MetalTabs.com. All Rights Reserved.