top separator

Home

Forum

What's New

Submit a Tab

FAQ

Links

Contact Us

Link to Us

MuSpy.com

MetalTabs.com logo

Bands

0-9

A

B

C

D

E

F

G

H

I

J

K

L

M

N

O

P

Q

R

S

T

U

V

W

X

Y

Z

Search

What

Where
 

Blackthrone - "Carpathian Funeral" Guitar Tab

Plain Text Version
More Blackthrone Tabs

Hits: 2901
Rated: 3.00 out of 5 (2 votes)
Updated: 2004-07-02 05:08:37

 

By:

sendpm.gif

email.gif

Important note
This tab is available online because we obtained explicit permission from Blackthrone or their label.


#----------------------------------PLEASE NOTE---------------------------------#
#This file is the author's own work and represents their interpretation of the #
#song. You may only use this file for private study, scholarship, or research. #
#Unless specified otherwise, this is NOT an official tab from the band members.#
#------------------------------------------------------------------------------#

  Visit MetalTabs.com for more metal tablature
  
darkstar:/home/t0m# cat carpathianfuneral.tab
// band - blackthrone
// album - panzerfaust division blackthrone
// track - carpathian funeral
// band site - www.blackthrone.tk
// copyright (Satanic Records 2001)
// guitar tab
// stardate 20040701
// author - flittermouse
// e-mail @ voidhanger@gmx.net

nb. - frets past 9 are in hex ie 10 = a, 11 = b etc

Riff 1

e|---------------------------------
b|---------------------------------
g|---------------------------------
d|---------------------------------
a|3-333-333-33/9-99-3-333-336-5-4--
E|1-111-111-11/7-77-1-111-114-3-2--

Riff 2

e|---------------------------------
b|---------------------------------
g|---------------------------------
d|----------------------3-3-3-3-3--
a|2-2-2-2-2-3-3-2-2-2-2-1-1-1-1-1--
E|0-0-0-0-0-1-1-0-0-0-0------------

Riff 3

e|---------------------------------
b|---------------------------------
g|---------------------------------
d|------------------------3-333-33-
a|2-222-222-2223222-222-221-111-11-
E|0-000-000-0001000-000-00---------

Riff 4 - a bit of variation with the palm muting on this riff

e|---------------------------------
b|---------------------------------
g|---------------------------------
d|---------------------------------
a|3--3-3-3-3/9-9-3--3-36-5-4-6-5-4-
E|1--1-1-1-1/7-7-1--1-14-3-2-4-3-2-

finito

  Visit MetalTabs.com for more metal tablature

bottom separator

Contact Us | Privacy Policy | Disclaimer | Legal Notice
Copyright © 2001-2014 MetalTabs.com. All Rights Reserved.