top separator

Home

Forum

What's New

Submit a Tab

FAQ

Links

Contact Us

Link to Us

MuSpy.com

MetalTabs.com logo

Bands

0-9

A

B

C

D

E

F

G

H

I

J

K

L

M

N

O

P

Q

R

S

T

U

V

W

X

Y

Z

Search

What

Where
 

Blackthrone - "Panzerfaust Division Blackthrone" Guitar Tab

Plain Text Version
More Blackthrone Tabs

Hits: 2847
Rated: 5.00 out of 5 (2 votes)
Updated: 2004-07-01 05:39:11

 

By:

sendpm.gif

email.gif

Important note
This tab is available online because we obtained explicit permission from Blackthrone or their label.


#----------------------------------PLEASE NOTE---------------------------------#
#This file is the author's own work and represents their interpretation of the #
#song. You may only use this file for private study, scholarship, or research. #
#Unless specified otherwise, this is NOT an official tab from the band members.#
#------------------------------------------------------------------------------#

  Visit MetalTabs.com for more metal tablature
  
// band - blackthrone
// album - panzerfaust division blackthrone
// track - panzerfaust division blackthrone
// band site - www.blackthrone.tk
// copyright (Satanic Records 2001)
// guitar tab
// stardate 20040630
// author - flittermouse
// e-mail @ voidhanger@gmx.net

nb. - frets past 9 are in hex ie 10 = a, 11 = b etc

riff 1

e|--------------------------------
b|--------------------------------
g|--9-----------------8-----------
d|--9999..............8-----------
a|--7777..............6-2-2-3-3-2-
E|----------------------0-0-1-1-0-

riff 2-1

e|-------------------------------
b|-------------------------------
g|-------------------------------
d|3.........................-----
a|1.........................3-3-3
E|--------------------------1-1-1

riff 2-2

e|-------------------------------
b|-------------------------------
g|-------------------------------
d|-------55555555--------55555555
a|2222222333333332222222233333333
E|0000000--------00000000--------

riff 3-1

e|-------------------------------
b|-------------------------------
g|-------------------------------
d|44/5\3/444/5\3/444/5\3/444-----
a|22/3\1/222/3\1/222/3\1/22203-3-
E|---------------------------1-1-

riff 3-2

e|-------------------------------
b|-------------------------------
g|-------------------------------
d|77/8\6/777/8\6/777/8\6/777/a-a-
a|55/6\4/555/6\4/555/6\4/555/8-8-
E|-------------------------------

teh end.

  Visit MetalTabs.com for more metal tablature

bottom separator

Contact Us | Privacy Policy | Disclaimer | Legal Notice
Copyright © 2001-2014 MetalTabs.com. All Rights Reserved.