top separator

Home

Forum

What's New

Submit a Tab

FAQ

Links

Contact Us

Link to Us

MuSpy.com

MetalTabs.com logo

Bands

0-9

A

B

C

D

E

F

G

H

I

J

K

L

M

N

O

P

Q

R

S

T

U

V

W

X

Y

Z

Search

What

Where
 

Darkthrone - "Sin Origin" Guitar Tab

Plain Text Version
More Darkthrone Tabs

Hits: 3351
Rated: 1.00 out of 5 (1 vote)
Updated: 2004-07-01 05:39:25

 

By:

sendpm.gif

email.gif

Important note
This tab is available online because we obtained explicit permission from Darkthrone or their label.


#----------------------------------PLEASE NOTE---------------------------------#
#This file is the author's own work and represents their interpretation of the #
#song. You may only use this file for private study, scholarship, or research. #
#Unless specified otherwise, this is NOT an official tab from the band members.#
#------------------------------------------------------------------------------#

  Visit MetalTabs.com for more metal tablature
  
Band: Darkthrone
Album: Plaguewielder (2001)
Song: Sin origin

Copyright  Moonfog Productions
Version 1.0 - 01.07.2004

Transcribed By: Somberlain
E-mail: tagir_@one.lv


.  - palm mute           /  - slide up to
\  - slide down to       ~  - vibrato
h  - hammer on           b  - Bend
p  - pull off            Suffixes for bend
t  - tap                 f  - full bend    h - half bend
ph - pinched harmonic    q  - quarter bend t - tap bend
*  - see comment         ^  - Hold bend    r release bend
x  - Stuccatto           ~  - vibrato bend
,  - slight palm mute    () - ghost note, sustained note
"  - tremolo note        <> - Trill

Tunning E A D G B E

Riff 1                    [1,3]             [2]           [4]
|----------------|-------------|---------------|-------------|
|----------------|-------------|---------------|-------------|
|----------------|-------------|---------------|-------------|
|-10-8-6-8-6--6--|-44-44-44-44-|-55-55-5\4-4\3-|-*let ring---|
|-8--6-4-6-4--4--|-22-22-22-22-|-33-33-3\2-2\1-|-3-----------|
|----------------|-------------|---------------|-1-----------|

Riff 1a                   [1,3]             [2]           [4]
|----------------|-------------|---------------|-------------|
|----------------|-------------|---------------|-------------|
|----------------|-------------|---------------|-------------|
|-10-8-6-8-6--6--|-44-44-44-44-|-55-55-5\4-4\3-|-------------|
|-8--6-4-6-4--4--|-22-22-22-22-|-33-33-3\2-2\1-|-33-33-33-33-|
|----------------|-------------|---------------|-11-11-11-11-|

Riff 2  Rock!
|-------------------------------------------------------------------------|
|---------------------------1---------------------------------------------|
|-----accent chord------------1-------------------------------------------|
|-----v-------v-------v---3-----------------------------------------------|
|-3-3-3-3-3-3-3-3-3-3-3-3--------10-10-10-10-10-10-10\8-8-8-8-8-8-8\6-6-7-|
|-1-1-1-1-1-1-1-1-1-1-1-1--------8--8--8--8--8--8--8-\6-6-6-6-6-6-6\4-4-5-|

Riff 3
|------------------------------------|--------|-----------|
|------------------------------------|--------|-----------|
|------------------------------------|--------|-----------|
|------------------------------------|--------|-7/8\7-7/9-|
|-7--6-7-6--6--5/6--7--7-7--6-7-6--6-|-5/6/7--|-5/6\5-5/7-|
|-5--4-5-4--4--3/4--5--5-5--4-5-4--4-|-3/4/5--|-----------|

Brake
|--------|
|--------|
|--------|
|--------|
|-7~-----|
|-5~-----|

Riff 4
|------------------------| This last riff is probably uncorrect,
|------------------------| but it sounds a little close to the original
|-7-10-9~----7-10--------|
|-----------------9~-----|
|------------------------|
|------------------------|

  Visit MetalTabs.com for more metal tablature

bottom separator

Contact Us | Privacy Policy | Disclaimer | Legal Notice
Copyright © 2001-2014 MetalTabs.com. All Rights Reserved.