top separator

Home

Forum

What's New

Submit a Tab

FAQ

Links

Contact Us

Link to Us

MetalTabs.com logo

Bands

0-9

A

B

C

D

E

F

G

H

I

J

K

L

M

N

O

P

Q

R

S

T

U

V

W

X

Y

Z

Search

What

Where
 

Samael - "Crown" Guitar Tab

Plain Text Version
More Samael Tabs

Hits: 4924
Rated: 3.00 out of 5 (1 vote)
Updated: 2004-06-28 04:52:10

 

By:

sendpm.gif

email.gif

Important note
This tab is available online because we obtained explicit permission from Samael or their label.


#----------------------------------PLEASE NOTE---------------------------------#
#This file is the author's own work and represents their interpretation of the #
#song. You may only use this file for private study, scholarship, or research. #
#Unless specified otherwise, this is NOT an official tab from the band members.#
#------------------------------------------------------------------------------#

  Visit MetalTabs.com for more metal tablature
  
Band:  Samael
Album: Ceremony of Opposites
Song:  Crown

Copyright (c)  Century Media 1994
Version 1.0 - 27/6/2004

Transcribed By: Wissam Sakha
Email:          Wissam_sakha@fastnetonline


.  - palm mute           /  - slide up to
\  - slide down to       ~  - vibrato
h  - hammer on           b  - Bend
p  - pull off            Suffixes for bend
t  - tap                 f  - full bend    h - half bend
ph - pinched harmonic    q  - quarter bend t - tap bend
*  - see comment         ^  - Hold bend    r release bend
x  - Stuccatto           ~  - vibrato bend
,  - slight palm mute    () - ghost note, sustained note
"  - tremolo note        <> - Trill

Tunning E A D G B E


 INTRO RIFF        2x
||----------------------------------|----------------------------||
||----------------------------------|----------------------------||
||*---------------------------------|---------------------------*||
||*---------------------------------|---------------------9--7--*||
||---10--9--7~~~--------7-----5-----|--10--9--7~~~--------7--5---||
||----------------0--0-----0-----0--|---------------0--0---------||


 RIFF 1           2X
||--------------------------|---------------------------------------||
||--------------------------|---------------------------------------||
||*-------------------------|---------------------------------------||
||*-------------------------|--------------------------------9--7---||
||---10--9---7--7--7--7--7--|--5---7------10--9-----7--------7--5---||
||--------------------------|--------------------0-----0--0---------||


  Bridge       1x           LEAD PART       RYTHM PART
||------------------|-----------------|-----------------------------||
||------------------|-----------------|-----------------------------||
||------------------|-----------------|-----------------------------||
||-2--2----222-2-2--|-----------------|------222-222----------------||
||-2--2----222-2-2--|----2------3P0---|------222-222----------------||
||-0--0----000-0-0--|-00----00--------|------000-000----------------||
   .       ... .     ..    ..                ... ...

(RIFF 1 2X)

Chorus      2x
||------------------------------------------||
||------------------------------------------||
||------------------------------------------||
||-9-------5------10--------6---5-----------||
||-7-------3------8---------4---3-----------||
||------------------------------------------||


(Riff 1    2x)
(Chorus    2x)

 Bridge 2
||--------------------|-------------------------------||
||--------------------|-------------------------------||
||--------------------|-------------------------------||
||--------------5--4--|-------------------------------||
||--3--2--0-----3--2--|--5--2--0-----3--2--0----------||
||-----------0--------|-----------0-----------3-------||


RIFF 2    3X
||------------------------------------------||
||------------------------------------------||
||------------------------------------------||
||-----9------9/10----9---------------------||
||-----7------7/8-----7-------7h8P0---------||
||--0----0--0------0----0--0--------8--7----||

BRIDGE 2

||---------------------------------------------|----------------------||
||---------------------------------------------|----------------------||
||---------------------------------------------|----------------------||
||---------------------------------------------|----------------------||
||--2--2--2----2--2--2----2--2--2---2--2--2----|--5-2-0-----3-2-0-----||
||--0--0--0----0--0--0----0--0--0---0--0--0----|---------0---------3--||

(RIFF 2   2X)

BRIDGE 3
  RYTHM PART
||--------------|-------------------||
||--------------|-------------------||
||*-------------|-------------------||
||*-----2-------|-----------5--4----||
||---2--0-------|--3--------3--2----||
||---0----------|--1----------------||
  LEAD PART
||--------------|----------------------||
||--------------|----------------------||
||--------------|----------------------||
||--------------|--------------5--4----||
||--------------|--3--2--0-----3--2----||
||--------------|-----------0----------||

RIFF 3    4X
||-------------------------------------------|------------------------------|
||-------------------------------------------|------------------------------|
||-------------------------------------------|------------------------------|
||-------------------------------------------|------------------------------|
||------------7777777------------------------|--------4--5-----4--5-----4---|
||0000--111-----------8888888--7777777--111--|--0--0--5--3--0--5--3--0--2---|


PICK SLIDE

RIFF 4             4X
||---------------------------------|------------------------------||
||---------------------------------|------------------------------||
||*--------------------------------|------------------------------||
||*--------------------------------|------------------------------||
||---2X--22--222---X-22---2X22-----|--3-2-0-----------------------||
||---0X--00--000---X-00---0X00-----|-----------5-3-2P0------------||
         .   ..      .      .



The song is complete but only two riffs remain.....hope u guys enjoy it, its
a great song for samael, i love it, that probably the reason why i tabbed it.
ANyone can figure out those two last riffs will be a great help for the
others...Any other comments plz send me an email....by the way im from
LEBANON...

  Visit MetalTabs.com for more metal tablature

bottom separator

Contact Us | Privacy Policy | Disclaimer | Legal Notice
Copyright © 2001-2014 MetalTabs.com. All Rights Reserved.