top separator

Home

Forum

What's New

Submit a Tab

FAQ

Links

Contact Us

Link to Us

MetalTabs.com logo

Bands

0-9

A

B

C

D

E

F

G

H

I

J

K

L

M

N

O

P

Q

R

S

T

U

V

W

X

Y

Z

Search

What

Where
 

Symbel - "Saecsen Drinking Song" Guitar Tab

Plain Text Version
More Symbel Tabs

Hits: 3439
Rated: 2.75 out of 5 (4 votes)
Updated: 2004-06-17 06:14:42

 

By:

Darkenelf

sendpm.gif

email.gif

Important note
This tab is available online because we obtained explicit permission from Symbel or their label.


#----------------------------------PLEASE NOTE---------------------------------#
#This file is the author's own work and represents their interpretation of the #
#song. You may only use this file for private study, scholarship, or research. #
#Unless specified otherwise, this is NOT an official tab from the band members.#
#------------------------------------------------------------------------------#

  Visit MetalTabs.com for more metal tablature
  
Band: Symbel
Album: We drink - Hymns and Counsel of Anglosaxon Heathenry
Song: Saecsen Drinking Song
Tabbed by: Martijn Wietsma
Tab Date: 17-06-2004
Email: northerland@yahoo.co.uk

Standard E Tuning

riff A
|--------------------------------------------------|
|--------------------------------------------------|
|--------------------------------------------------|(2x)
|--------------------------------------------------|
|-5-----8-8-10-8-5------5-----8-8-10-8/10\8-5------|
|-3-333-6-6--8-6-3-333--3-333-6-6--8-6/-8\6-3------|
    ...            ...    ...

riff B (0:17)
|--------------------------------------------------|
|--------------------------------------------------|
|--------------------------------------------------|
|--------------------------------------------------|
|-5-----8-8-10-8-5------5-----8-8-10-8-5-----------|
|-3-333-6-6--8-6-3-333--3-333-6-6--8-6-3-333-------|
    ...            ...    ...            ...

|----------------------------------------------------------|
|----------------------------------------------------------|
|----------------------------------------------------------|
|----------------------------------------------------------|
|-5-----8-8-10-8-5------5-----8-8-------------------3p2h---|
|-3-333-6-6--8-6-3-333--3-333-6-6-5p3p2-5p3p2-5p3p2------5-|
    ...            ...    ...

riff C (0:34)
|--------------------------------------------------|
|--------------------------------------------------|
|-------------------------7p5----------------------|
|-----------------------------8p7------------------|
|-7--7--7--7--4--4--4--4---------------------------|
|-5--5--5--5--2--2--2--2---------------------------|

|--------------------------------------------------|
|--------------------------------------------------|
|--------------------------------------------------|
|--------------------------------------------------|
|-7--7--7--7--4--4-----4---------------------------|
|-5--5--5--5--2--2-222-2---------------------------|
                   ...

repeat riff C 3x

repeat riff A 2x (1:08)
repeat riff B 1x

riff D (solo 1) (1:33)
|-6-5-3---3----------------------------------------|
|-------6---3---3-1--------------------------------|
|-------------------3-5----------------------------|
|-----------------------5~-------------------------|
|--------------------------------------------------|
|--------------------------------------------------|

repeat riff C 4x (1:40)

Riff E (2:12)
|--------------------------------------------------|
|--------------------------------------------------|
|--------------------------------------------------|(2x)
|----------------------------------------------3---|
|-5-----8-8-10-8-5------5-----8-8-10-8/10\8-5--1---|
|-3-333-6-6--8-6-3-333--3-333-6-6--8-6/-8\6-3------|
    ...            ...    ...

repeat riff B 1x (2:29)

riff F solo 2
|-3~-------------3~--------------------3-3-3-3-----|
|----6-3--5-1/3------------------------------------|
|--------------------------------------------------|
|--------------------------------------------------|
|--------------------------------------------------|
|--------------------------------------------------|

repeat riff C 4x (2:45)

(end of song)

  Visit MetalTabs.com for more metal tablature

bottom separator

Contact Us | Privacy Policy | Disclaimer | Legal Notice
Copyright © 2001-2014 MetalTabs.com. All Rights Reserved.