top separator

Home

Forum

What's New

Submit a Tab

FAQ

Links

Contact Us

Link to Us

MuSpy.com

MetalTabs.com logo

Bands

0-9

A

B

C

D

E

F

G

H

I

J

K

L

M

N

O

P

Q

R

S

T

U

V

W

X

Y

Z

Search

What

Where
 

Korpiklaani - "Shaman drum" Guitar Tab

Plain Text Version
More Korpiklaani Tabs

Hits: 5674
Rated: 2.00 out of 5 (3 votes)
Updated: 2004-06-17 04:51:20

 

By:

Darkenelf

sendpm.gif

email.gif

Important note
This tab is available online because we obtained explicit permission from Korpiklaani or their label.


#----------------------------------PLEASE NOTE---------------------------------#
#This file is the author's own work and represents their interpretation of the #
#song. You may only use this file for private study, scholarship, or research. #
#Unless specified otherwise, this is NOT an official tab from the band members.#
#------------------------------------------------------------------------------#

  Visit MetalTabs.com for more metal tablature
  
Band: Korpiklaani
Album: Spirit of the Forest
Song: Shaman Drum
Tabbed by: Martijn Wietsma
Tab Date: 16-06-2004
Email: northerland@yahoo.co.uk

Standard E Tuning

riff A
|-------------------------------------------------|
|-------------------------------------------------|
|-------------------------------------------------|
|-------------------------------------------------|
|-77-77-77-77--77-77-77-77--77-77-77-77--77-77----|
|-55-55-55-55--55-55-55-55--55-55-55-55--55-55----|
  .  .  .  .   .  .  .  .   .  .  .  .   .  .

riff B (0:10)
|-------------------------------------------------|
|-------------------------------------------------|
|-------------------------------------------------|
|-------------------------------------------------|
|-77-77-77-77--77-77-77-77--77-77-77-77--77-3-5-5-|
|-55-55-55-55--55-55-55-55--55-55-55-55--55-1-3-3-|
  .  .  .  .   .  .  .  .   .  .  .  .   .

riff C (0:20)
|-------------------------------------------------|
|-------------------------------------------------|
|-------------------------------------------------|
|-5/7-77-7--77-7--77-7-5-7--3-5-------------------|
|-3/5-55-5--55-5--55-5-3-5--1-3-7-----------------|
|-------------------------------5-----------------|
      ..    ..    ..

|-------------------------------------------------|
|-------------------------------------------------|
|-------------------------------------------------|
|-5/7-77-7--77-7--77-7-5-7--3-5-7-----------------|
|-3/5-55-5--55-5--55-5-3-5--1-3-5-----------------|
|-------------------------------------------------|
      ..    ..    ..

repeat riff C 1x
repeat riff D 1x

repeat riff C 1x
repeat riff D 1x

repeat riff C 1x
repeat riff D 1x

riff E (1:00)
|-------------------------------------------------|
|-------------------------------------------------|
|-7/9----9----------------------------------------|
|-5/7-77-7--5/7----7--3-5-------------------------|
|-----------3/5-55-5--1-3------7------------------|
|--------------------------5-5-5------------------|
      ..        ..         . .

riff F
|-------------------------------------------------|
|-------------------------------------------------|
|-------------------------------------------------|
|-----------5/7----7------------------------------|
|-5/7----7--3/5-55-5--5h7h8-(7)-7p5h---5----------|
|-3/5-55-5---------------------------8------------|

repeat riff E 1x
repeat riff F 1x

riff G (not really correct at the moment) (1:20)
|-------------------------------------------------|
|-------------------------------------------------|
|-----------------------------7-7-5h7p5-----------|(3x)
|----------5h7h8-7p5h---------5---------8p7h8-7---|
|-7--7--7-------------8----7----------------------|
|-5--5--5------------------5----------------------|

riff H (not really correct at the moment)
|-------------------------------------------------|
|-------------------------------------------------|
|-------------------------------------------------|(1x)
|----------5h7h8-7p5h-----------------------------|
|-7--7--7-------------8----33-55------------------|
|-5--5--5------------------11-33------------------|

repeat riff A 1x (1:40)
repeat riff B 1x

repeat riff C 1x (2:01)
repeat riff D 1x
repeat riff C 1x
repeat riff D 1x
repeat riff C 1x
repeat riff D 1x
repeat riff C 1x
repeat riff D 1x

repeat riff E 1x (2:42)
repeat riff F 1x
repeat riff E 1x
repeat riff F 1x
repeat riff G 3x
repeat riff H 1x

repeat riff A 1x
repeat riff B 1x

repeat riff C 1x
repeat riff D 1x
repeat riff C 1x
repeat riff D 1x

repeat riff E 1x
repeat riff F 1x
repeat riff E 1x
repeat riff F 1x

riff I
|-------------------------------------------------|
|-------------------------------------------------|
|-------------------------------------------------|(1x)
|-5h7h8-(7)-7p5h---5------------------------------|
|----------------8--------------------------------|
|-------------------------------------------------|


(end of song)

  Visit MetalTabs.com for more metal tablature

bottom separator

Contact Us | Privacy Policy | Disclaimer | Legal Notice
Copyright © 2001-2014 MetalTabs.com. All Rights Reserved.