top separator

Home

Forum

What's New

Submit a Tab

FAQ

Links

Contact Us

Link to Us

MetalTabs.com logo

Bands

0-9

A

B

C

D

E

F

G

H

I

J

K

L

M

N

O

P

Q

R

S

T

U

V

W

X

Y

Z

Search

What

Where
 

Storm (NO) - "Oppi Fjellet" Guitar Tab

Plain Text Version
More Storm (NO) Tabs

Hits: 6741
Rated: 2.75 out of 5 (8 votes)
Updated: 2005-06-08 15:59:28

 

By:

Darkenelf

sendpm.gif

email.gif

Important note
This tab is available online because we obtained explicit permission from Storm (NO) or their label.


#----------------------------------PLEASE NOTE---------------------------------#
#This file is the author's own work and represents their interpretation of the #
#song. You may only use this file for private study, scholarship, or research. #
#Unless specified otherwise, this is NOT an official tab from the band members.#
#------------------------------------------------------------------------------#

  Visit MetalTabs.com for more metal tablature
  
Band:  Storm
Album: Nordavind
Song:  Oppi Fjellet

Copyright (c)  Moonfog Records 1995
Version 1.0 - 29-05-2005 (redo of whole song)

Transcribed By: Martijn Wietsma (Asmundr/Darkenelf)
Email: asmundr@vikingblood.net / northerland@yahoo.co.uk


.  - palm mute           /  - slide up to
\  - slide down to       ~  - vibrato
h  - hammer on           b  - Bend
p  - pull off            Suffixes for bend
t  - tap                 f  - full bend    h - half bend
ph - pinched harmonic    q  - quarter bend t - tap bend
*  - see comment         ^  - Hold bend    r release bend
x  - Stuccatto           ~  - vibrato bend
,  - slight palm mute    () - ghost note, sustained note
"  - tremolo note        <> - Trill

Tuning E A D G B E

Riff A
|-------------------------------------------------------------------|
|-------------------------------------------------------------------|
|-------------------------------------------------------------------|(2x)
|-------------------------------------------------------------------|
|---5h7h8--7-5--7------------4h5-5-----4h5-5------------------------|
|-8---------------8-5~-----5---------5------------------------------|

Riff B (0:12)
|-------------------------------------------------------------------|
|-------------------------------------------------------------------|
|-------------------------------------------------------------------|(1x)
|---------7~-7-5------5---------------------------------------------|
|---5h7h8--------7~-----8-7--5h7h8--5-7----------4h5-5--------------|
|-8-------------------------------------8-5~---5--------------------|

Repeat riff A 2x
Repeat riff B 1x (0:34)
Repeat riff A 2x
Repeat riff B 1x (0:54)
Repeat riff A 2x
Repeat riff B 1x (1:15)

Riff C (1:15)
|-------------------------------------------------------------------|
|-------------------------------------------------------------------|
|-------------------------------------------------------------------|(1x)
|-------------------------------------------------------------------|
|---4h5-5-----4h5-5-----4h5-5-----4h5-5-----------------------------|
|-5---------5---------5---------5-----------------------------------|

Riff D (1:26)
|-------------------------------------------------------------------|
|-------------------------------------------------------------------|
|-------------------------------------------------------------------|(6x)
|-------------7-7p555-----------------------------------------------|
|---555-7h888---------7h888-5h777---5~------------------------------|
|-5-------------------------------8---------------------------------|

Riff C
|-------------------------------------------------------------------|
|-------------------------------------------------------------------|
|-------------------------------------------------------------------|(1x)
|-------------------------------------------------------------------|
|---4h5-5-----4h5-5-----4h5-5---------------------------------------|
|-5---------5---------5---------------------------------------------|

Repeat riff A 2x
Repeat riff B 1x (2:17)
Repeat riff A 2x
Repeat riff B 1x (2:37)
Repeat riff C 1x
Repeat riff D 12x (2:48)

(end of song)

  Visit MetalTabs.com for more metal tablature

bottom separator

Contact Us | Privacy Policy | Disclaimer | Legal Notice
Copyright © 2001-2014 MetalTabs.com. All Rights Reserved.