top separator

Home

Forum

What's New

Submit a Tab

FAQ

Links

Contact Us

Link to Us

MetalTabs.com logo

Bands

0-9

A

B

C

D

E

F

G

H

I

J

K

L

M

N

O

P

Q

R

S

T

U

V

W

X

Y

Z

Search

What

Where
 

Storm (NO) - "Villemann" Guitar Tab

Plain Text Version
More Storm (NO) Tabs

Hits: 4715
Rated: 3.00 out of 5 (2 votes)
Updated: 2004-06-16 10:28:36

 

By:

Darkenelf

sendpm.gif

email.gif

Important note
This tab is available online because we obtained explicit permission from Storm (NO) or their label.


#----------------------------------PLEASE NOTE---------------------------------#
#This file is the author's own work and represents their interpretation of the #
#song. You may only use this file for private study, scholarship, or research. #
#Unless specified otherwise, this is NOT an official tab from the band members.#
#------------------------------------------------------------------------------#

  Visit MetalTabs.com for more metal tablature
  
Band: Storm
Album: Nordavind
Song: Villemann
Tabbed by: Martijn Wietsma
Tab Date: 16-06-2004
Email: northerland@yahoo.co.uk

Standard E Tuning

riff A
|--------------------------------------------|
|--------------------------------------------|
|------------------------2-------------------|
|------------------2-2-----2-2--------2-2----|
|---2h3-p2h--------------------5p3~-5--------|
|-5---------5-3h5----------------------------|

riff B (0:09)
|----------------------------------------------|
|----------------------------------------------|
|----------------------------------------------|
|-----2h---------------------------------------|
|-5-5----3-3--5p2-2---3~--3h5-2-2--------------|
|-------------------5-------------3h5-5-3~-5-5-|

repeat riff A 1x (0:19)
repeat riff B 1x (0:28)
repeat riff A 1x (0:36)
repeat riff B 1x (0:45)
repeat riff A 1x (0:54)
repeat riff B 1x (1:02)
repeat riff A 1x (1:12)
repeat riff B 1x (1:21)
repeat riff A 1x (1:30)
repeat riff B 1x (1:38)
repeat riff A 1x (1:47)
repeat riff B 1x (1:57)

(end of song)

  Visit MetalTabs.com for more metal tablature

bottom separator

Contact Us | Privacy Policy | Disclaimer | Legal Notice
Copyright © 2001-2014 MetalTabs.com. All Rights Reserved.