top separator

Home

Forum

What's New

Submit a Tab

FAQ

Links

Contact Us

Link to Us

MetalTabs.com logo

Bands

0-9

A

B

C

D

E

F

G

H

I

J

K

L

M

N

O

P

Q

R

S

T

U

V

W

X

Y

Z

Search

What

Where
 

Storm (NO) - "Haavard Hedde" Guitar Tab

Plain Text Version
More Storm (NO) Tabs

Hits: 5889
Rated: 3.33 out of 5 (3 votes)
Updated: 2004-06-16 10:28:31

 

By:

Darkenelf

sendpm.gif

email.gif

Important note
This tab is available online because we obtained explicit permission from Storm (NO) or their label.


#----------------------------------PLEASE NOTE---------------------------------#
#This file is the author's own work and represents their interpretation of the #
#song. You may only use this file for private study, scholarship, or research. #
#Unless specified otherwise, this is NOT an official tab from the band members.#
#------------------------------------------------------------------------------#

  Visit MetalTabs.com for more metal tablature
  
Band: Storm
Album: Nordavind
Song: Håvard Hedde
Tabbed by: Martijn Wietsma
Tab Date: 16-06-2004
Email: northerland@yahoo.co.uk

Standard E Tuning

riff A
|-----------------------------------------------|
|-----------------------------------------------|
|-----------------------------------------------|(1x)
|----9-10-9---7/9-------------------------------|
|-7--7--8-7---5/7---7---9-10--9-7--5-7----------|
|-5-----------------5---7--8--7-5--3-5----------|

riff B (0:06)
|-----------------------------------------------|
|-----------------------------------------------|
|-----------8/11--9-9---8--------7--------------|
|-7-9--7-9--6/-9--7-7---6-10-10--5-10-9---------|
|-5-7--5-7-----------------8--8-----8-7---------|
|-----------------------------------------------|

|-----------------------------------------------|
|-----------------------------------------------|
|-----------------------------------------------|
|-----------------------------------------------|
|-10-10-12-10-9---------------------------------|
|--8--8-10--8-7---------------------------------|

repeat riff A 2x (0:16)
repeat riff B 1x (0:26)
repeat riff A 2x (0:35)
repeat riff B 1x (0:45)
repeat riff A 1x (0:55)

riff C (0:58)
|-----------------------------------------------|
|-----------------------------------------------|
|-----------------------------------------------|
|-----------------------------------------------|
|---7-8-7-5--------------7-8-7-5----------------|
|-5---------8-7-5-3-/--5---------8-7-5-3-/------|

|-----------------------------------------------|
|-----------------------------------------------|
|-----------------------------------------------|
|-----------------------------------------------|
|---7-8-7-5------------9-9--5/7-----------------|
|-5---------8-7-5-3-/--7-7--3/5-----------------|

repeat riff C 1x (1:07)
repeat riff A 1x (1:20)
repeat riff B 1x
repeat riff A 2x (1:34)
repeat riff B 1x
repeat riff A 1x (1:51)
repeat riff C 2x (1:55)
repeat riff A 1x (2:18)
repeat riff B 1x
repeat riff A 2x (2:31)
repeat riff B 1x
repeat riff A 2x (2:51)
repeat riff B 1x
repeat riff A 1x

(end of song)

  Visit MetalTabs.com for more metal tablature

bottom separator

Contact Us | Privacy Policy | Disclaimer | Legal Notice
Copyright © 2001-2014 MetalTabs.com. All Rights Reserved.