top separator

Home

Forum

What's New

Submit a Tab

FAQ

Links

Contact Us

Link to Us

MetalTabs.com logo

Bands

0-9

A

B

C

D

E

F

G

H

I

J

K

L

M

N

O

P

Q

R

S

T

U

V

W

X

Y

Z

Search

What

Where
 

Storm (NO) - "Mellom Bakkar Og Berg" Guitar Tab

Plain Text Version
More Storm (NO) Tabs

Hits: 6534
Rated: 4.00 out of 5 (1 vote)
Updated: 2004-06-16 10:28:25

 

By:

Darkenelf

sendpm.gif

email.gif

Important note
This tab is available online because we obtained explicit permission from Storm (NO) or their label.


#----------------------------------PLEASE NOTE---------------------------------#
#This file is the author's own work and represents their interpretation of the #
#song. You may only use this file for private study, scholarship, or research. #
#Unless specified otherwise, this is NOT an official tab from the band members.#
#------------------------------------------------------------------------------#

  Visit MetalTabs.com for more metal tablature
  
Band: Storm
Album: Nordavind
Song: Mellom Bakkar Og Berg
Tabbed by: Martijn Wietsma
Tab Date: 16-06-2004
Email: northerland@yahoo.co.uk

Standard E Tuning

riff A
|-----------------------------------------------|
|-----------------------------------------------|
|-----------------------------------------------|
|-9------------------7-9~-----------------------|
|-7-10-7--7-9-10--10-5-7-10---------------------|
|----8-5--5-7--8---8------8---------------------|

riff B (0:04)
|-----------------------------------------------|
|-----------------------------------------------|
|-----------------------------------------------|
|-9-10-12--9-5-7--4-----------------------------|
|-7--8-10--7-3-5--2-5-7-------------------------|
|-------------------3-5-------------------------|

riff C (0:09)
|-----------------------------------------------|
|-----------------------------------------------|
|-----------------------------------------------|
|-9-10--7-7--9-------7---9~---------------------|
|-7--8--5-5--7-10-10-5-9-7----------------------|
|---------------8--8---7------------------------|

|-----------------------------------------------|
|-----------------------------------------------|
|-7/9-------------------------------------------|
|-5/7--9/10\9-7---------------------------------|
|------7/-8\7-5/10\9\7--------------------------|
|----------------8\7\5--------------------------|

repeat riff A 1x
repeat riff B 1x
repeat riff C 1x

repeat riff A 1x
repeat riff B 1x
repeat riff C 1x

riff D (0:50)
|-----------------------------------------------|
|-----------------------------------------------|
|----9~-10-9-7/9--7-----------------------------|(4x)
|----7---8-7-5/7--5-8---------------------------|
|-7-----------------6---------------------------|
|-5---------------------------------------------|

riff E
|-----------------------------------------------|
|-----------------------------------------------|
|----9~-10-9-7/9--7-----------------------------|(3x)
|----7---8-7-5/7--5-8---------------------------|
|-7-----------------6---------------------------|
|-5---------------------------------------------|

|-----------------------------------------------|
|-----------------------------------------------|
|----9~-10-9-7/9--------------------------------|(1x)
|----7---8-7-5/7--------------------------------|
|-7---------------------------------------------|
|-5---------------------------------------------|

repeat riff A 1x (1:26)
repeat riff B 1x
repeat riff C 1x

repeat riff A 1x (1:41)
repeat riff B 1x
repeat riff C 1x

repeat riff A 1x (1:59)
repeat riff B 1x
repeat riff C 1x

repeat riff A 1x (2:18)
repeat riff B 1x
repeat riff C 1x

(end of song)

  Visit MetalTabs.com for more metal tablature

bottom separator

Contact Us | Privacy Policy | Disclaimer | Legal Notice
Copyright © 2001-2014 MetalTabs.com. All Rights Reserved.