top separator

Home

Forum

What's New

Submit a Tab

FAQ

Links

Contact Us

Link to Us

MetalTabs.com logo

Bands

0-9

A

B

C

D

E

F

G

H

I

J

K

L

M

N

O

P

Q

R

S

T

U

V

W

X

Y

Z

Search

What

Where
 

Storm (NO) - "Innferd" Guitar Tab

Plain Text Version
More Storm (NO) Tabs

Hits: 4883
Rated: 4.00 out of 5 (1 vote)
Updated: 2004-06-16 10:27:55

 

By:

Darkenelf

sendpm.gif

email.gif

Important note
This tab is available online because we obtained explicit permission from Storm (NO) or their label.


#----------------------------------PLEASE NOTE---------------------------------#
#This file is the author's own work and represents their interpretation of the #
#song. You may only use this file for private study, scholarship, or research. #
#Unless specified otherwise, this is NOT an official tab from the band members.#
#------------------------------------------------------------------------------#

  Visit MetalTabs.com for more metal tablature
  
Band: Storm
Album: Nordavind
Song: Innferd
Tabbed by: Martijn Wietsma
Tab Date: 16-06-2004
Email: northerland@yahoo.co.uk

Standard E Tuning

riff A
|------------------------------------------------|
|------------------------------------------------|
|------------------------------------------------|(2x)
|----7------7------7------7----------------------|
|------------------------------------------------|
|-5------5------5------5-------------------------|

riff B (0:39)
|------------------------------------------------|
|------------------------------------------------|
|---------5------------------5-------------------|
|----7-9----9-5h7-------7-9----9-5h7-------------|
|------------------------------------------------|
|-5------------------5---------------------------|

riff C
|------------------------------------------------|
|------------------------------------------------|
|------------------------------------------------|
|-7-5----------------5---------------------------|
|-----8-----5h7h8------8-7------5----------------|
|--------5-----------------5--8------------------|

repeat riff B 1x

(end of song)

  Visit MetalTabs.com for more metal tablature

bottom separator

Contact Us | Privacy Policy | Disclaimer | Legal Notice
Copyright © 2001-2014 MetalTabs.com. All Rights Reserved.