top separator

Home

Forum

What's New

Submit a Tab

FAQ

Links

Contact Us

Link to Us

MuSpy.com

MetalTabs.com logo

Bands

0-9

A

B

C

D

E

F

G

H

I

J

K

L

M

N

O

P

Q

R

S

T

U

V

W

X

Y

Z

Search

What

Where
 

Finntroll - "Grottans Barn" Guitar Tab

Plain Text Version
More Finntroll Tabs

Hits: 6112
Rated: 4.67 out of 5 (3 votes)
Updated: 2004-06-14 13:07:34

 

By:

Darkenelf

sendpm.gif

email.gif

Important note
This tab is available online because we obtained explicit permission from Finntroll or their label.


#----------------------------------PLEASE NOTE---------------------------------#
#This file is the author's own work and represents their interpretation of the #
#song. You may only use this file for private study, scholarship, or research. #
#Unless specified otherwise, this is NOT an official tab from the band members.#
#------------------------------------------------------------------------------#

  Visit MetalTabs.com for more metal tablature
  
Band: Finntroll
Album: Nattfodd
Song: Grottans Barn
Tabbed by: Martijn Wietsma
Tab Date: 12-04-2004
Email: northerland@yahoo.co.uk

Standard E Tuning

riff A1 (acoustic) (git 1)
|---------------------------------8-8-10-----------------|
|-10---------------------8-10------------10--------------|
|----7-7-----7----7-9-10------7-7------------------------|
|---------10---10----------------------------------------|
|--------------------------------------------------------|
|--------------------------------------------------------|

riff A2 (acoustic) (git 2)
|--------------------------------------------------------|
|------6-------------------------------------------------|
|-7-7----8-----------------------------------------------|
|--------------------------------------------------------|
|--------------------------------------------------------|
|--------------------------------------------------------|

riff B1 (acoustic) (git 1) (0:05)
|--------------------------------------------------------|
|-10---------------------8-10----------------------------|
|----7-7-----7----7-9-10------7-7-----9-7----------------|
|---------10---10------------------10--------------------|
|--------------------------------------------------------|
|--------------------------------------------------------|

riff B2 (acoustic) (git 2)
|--------------------------------------------------------|
|--------------------------------------------------------|
|-7-7---------------------------------9-7----------------|
|----------------------------------10--------------------|
|--------------------------------------------------------|
|--------------------------------------------------------|

riff C (0:25)
|--------------------------------------------------------|
|--------------------------------------------------------|
|--------------------------------------------------------|
|-7------------7------------7------------7---------9-7---|
|-5-555-55-55--5-555-55-55--5-555-55-55--5-555--10-7-5---|
|------------------------------------------------8-------|
    ... .. ..    ... .. ..    ... .. ..    ...

repeat riff A (0:25) 1x
repeat riff B 1x
repeat riff A (0:39) 1x
repeat riff B 1x

riff D (0:50)
|--------------------------------------------------------|
|--------------------------------------------------------|
|--------------------------------------------------------|(4x)
|-55-7--55-7--55-7--55-7--55-7--55-7-----9-7-------------|
|-33-5--33-5--33-5--33-5--33-5--33-5--10-7-5-------------|
|--------------------------------------8-----------------|
  ..    ..    ..    ..    ..    ..

riff E (1:17)
|--------------------------------------------------------|
|--------------------------------------------------------|
|--------------------------------------------------------|
|-77-7--77-7--77-7--77-7--77-7--77-7--77-7--77-7---------|
|-55-5--55-5--55-5--55-5--55-5--55-5--55-5--55-5---------|
|--------------------------------------------------------|
  ..    ..    ..    ..    ..    ..    ..    ..

|--------------------------------------------------------|
|--------------------------------------------------------|
|--------------------------------------------------------|
|-77-7--77-7--77-7--77-7--77-7--77-7-----9-7-------------|
|-55-5--55-5--55-5--55-5--55-5--55-5--10-7-5-------------|
|--------------------------------------8-----------------|
  ..    ..    ..    ..    ..    ..

repeat riff E 1x
repeat riff A 1x (1:30)
repeat riff B 1x
repeat riff E 1x (1:30)

riff F (git 1) (1:43)
|--------------------------------------------------------|
|--------------------------------------------------------|
|-5h7~-7~-7h8p7p5h7---5h7~-7~-5---7----------------------|(4x)
|-------------------------------7------------------------|
|--------------------------------------------------------|
|--------------------------------------------------------|

riff F (git 2)
|--------------------------------------------------------|
|--------------------------------------------------------|
|-------------------5-----7------------------------------|(4x)
|-7--7--7--7--7--7--3--7--5------------------------------|
|-5--5--5--5--5--5-----5---------------------------------|
|--------------------------------------------------------|

riff G (2:08) (solo)
|---------8----------------10----------------8---------------|
|-8-10h11---11p10--8-10h11----11p10--8-10h11---11p10----10-8-|
|----------------------------------------------------10------|(2x)
|------------------------------------------------------------|
|------------------------------------------------------------|
|------------------------------------------------------------|

riff G (chords)
|--------------------------------------------------------|
|--------------------------------------------------------|
|--------------------------------------------------------|(2x)
|------5555------7777------5555--------------------------|
|-5555-3333-5555-5555-5555-3333-3-7-5--------------------|
|-3333------3333------3333------1-5-3--------------------|

riff H (2:21)
|--------------------------------------------------------|
|--------------------------------------------------------|
|--------------------------------------------------------|
|--------------------------------------------------------|
|-5--555--3/5/5-5-5-----5--555--3/5/5-5-5----------------|
|-3--333--1/3/5-5-5-----3--333--1/3/5-5-5----------------|

|--------------------------------------------------------|
|--------------------------------------------------------|
|--------------------------------------------------------|
|--------33------------------------33--------------------|
|-3--33--11--3/5--5--55-----3--33--11--3/5--5--55--------|
|-1--11------1/3--3--33-----1--11------1/3--3--33--------|

repeat riff H 1x

riff I (keyboard part) (still busy with this part)
|-------------10p----------------------------------------|
|-8-10h11p10p-----11p10----------------------------------|
|-----------------------10-10h12p10----------------------|(2x)
|--------------------------------------------------------|
|--------------------------------------------------------|
|--------------------------------------------------------|

repeat riff E 2x (3:12)
repeat riff A 1x, B 1x
repeat riff E 1x
repeat riff D 4x (3:51)
repeat riff A 1x (4:16)
repeat riff B 1x

(end of song)

  Visit MetalTabs.com for more metal tablature

bottom separator

Contact Us | Privacy Policy | Disclaimer | Legal Notice
Copyright © 2001-2014 MetalTabs.com. All Rights Reserved.