top separator

Home

Forum

What's New

Submit a Tab

FAQ

Links

Contact Us

Link to Us

MetalTabs.com logo

Bands

0-9

A

B

C

D

E

F

G

H

I

J

K

L

M

N

O

P

Q

R

S

T

U

V

W

X

Y

Z

Search

What

Where
 

Cephalic Carnage - "Exhumed Remains" Guitar Tab

Plain Text Version
More Cephalic Carnage Tabs

Hits: 4826
Rated: 5.00 out of 5 (4 votes)
Updated: 2004-06-14 04:21:25

 

By:

Father Death

sendpm.gif

email.gif

Important note
This tab is available online because we obtained explicit permission from Cephalic Carnage or their label.


#----------------------------------PLEASE NOTE---------------------------------#
#This file is the author's own work and represents their interpretation of the #
#song. You may only use this file for private study, scholarship, or research. #
#Unless specified otherwise, this is NOT an official tab from the band members.#
#------------------------------------------------------------------------------#

  Visit MetalTabs.com for more metal tablature
  
Band:        CEPHALIC CARNAGE
Album:        Perversion... And The Guilt After
Song:        Exhumed Remains

Transcribed by:        Chris Humeniuk
Email:        father_death_666@hotmail.com

Tuning: 2.5 steps down (B)

Keys:
  "  - tremelo pick
 ___ - palm mute
 / \ - slide


|-------------------------------------------------------------------------
|-------------------------------------------------------------------------
|-2"--3"------------------------------------------------------------------
|---------2"-3"-----------------------------------------------------------
|---------------2"----------5\4--------5----5\4-------5\4--------5----5\4-
|------------------0"-0"----3\2-0"-----3-0"-3\2-0"----3\2-0"-----3-0"-3\2-
                      ______    _______  ___    ______    _______  ___

 -------------------------------------------------------------------------
 -------------------------------------------------------------------------
 -2"--3"----------------------------------------2"--3"--------------------
 ---------2"-3"-----------------------------------------2"-3"-------------
 ---------------2"----------5\4--------5----5\4---------------2"----------
 ------------------0"-0"----3\2-0"-----3-0"-3\2------------------0"-0"----
                      ______    _______  ___                        ______

 -------------------------------------------------------------------------
 -------------------------------------------------------------------------
 -------------------------------------------------------------------------
 -------------------------------------------------------------------------
 -5\4--------5----5\4-------5\4--------5----5\4-------5\4--------5----5\4-
 -3\2-0"-----3-0"-3\2-0"----3\2-0"-----3-0"-3\2-0"----3\2-0"-----3-0"-3\2-
      _______  ___    ______    _______  ___    ______    _______  ___

 -----------------------|
 -----------------------|
 -2"--3"----------------|
 ---------2"-3"-------3-|
 ---------------2"----3-|
 ------------------0"-1-|


|-------------------------------------|
|-------------------------------------|
|-------------------------------------|
|-3/4-3----3/4-3----3/4-3--3-4-5--3/4-|
|-3/4-3----3/4-3----3/4-3--3-4-5--3/4-|
|-1/2-1----1/2-1----1/2-1--1-2-3--1/2-|

|---------------------------------------------|
|---------------------------------------------|
|---------------------------------------------|
|-------3/4-------3/4-------3/4-3--3-4-5--3/4-|
|-------3/4-------3/4-------3/4-3--3-4-5--3/4-|
|-0"----1/2-0"----1/2-0"----1/2-1--1-2-3--1/2-| 2x

|------------------------------------------
|------------------------------------------
|------------------------------------------
|-3----3/4-3----3/4-3----3/4-3--3-4-5--3/4-
|-3----3/4-3----3/4-3----3/4-3--3-4-5--3/4-
|-1----1/2-1----1/2-1----1/2-1--1-2-3--1/2-

 ------------------------------------------|
 ------------------------------------------|
 ------------------------------------------|
 -3----3/4-3----3/4-3----3/4-3--3-4-5--3/4-|
 -3----3/4-3----3/4-3----3/4-3--3-4-5--3/4-|
 -1----1/2-1----1/2-1----1/2-1--1-2-3--1/2-|
  _____    _____    _____


|-------------------------------------------------------------------------
|-------------------------------------------------------------------------
|-2"--3"------------------------------------------------------------------
|---------2"-3"-----------------------------------------------------------
|---------------2"----------5\4--------5----5\4-------5\4--------5----5\4-
|------------------0"-0"----3\2-0"-----3-0"-3\2-0"----3\2-0"-----3-0"-3\2-
                      ______    _______  ___    ______    _______  ___

 -------------------------------------------------------------------------
 -------------------------------------------------------------------------
 -2"--3"----------------------------------------2"--3"--------------------
 ---------2"-3"-----------------------------------------2"-3"-------------
 ---------------2"----------5\4--------5----5\4---------------2"----------
 ------------------0"-0"----3\2-0"-----3-0"-3\2------------------0"-0"----
                      ______    _______  ___                        ______

 -------------------------------------------------------------------------
 -------------------------------------------------------------------------
 -------------------------------------------------------------------------
 -------------------------------------------------------------------------
 -5\4--------5----5\4-------5\4--------5----5\4-------5\4--------5----5\4-
 -3\2-0"-----3-0"-3\2-0"----3\2-0"-----3-0"-3\2-0"----3\2-0"-----3-0"-3\2-
      _______  ___    ______    _______  ___    ______    _______  ___

 ---------------------|
 ---------------------|
 -2"--3"--------------|
 ---------2"-3"-------|
 ---------------2"----|
 ------------------0"-|


|---------------------------------|
|---------------------------------|
|---------------------------------|
|---------5\4-------------5---5\4-|
|-2-2-2-2-5\4-2-2-2-2-2-2-5---5\4-|
|-0-0-0-0-3\2-0-0-0-0-0-0-3-0-3\2-| 5x
  _______     ___________   _

(Gtr 1)
|---------------------------------|
|---------------------------------|
|---------------------------------|
|---------5\4-------------5---5\4-|
|-2-2-2-2-5\4-2-2-2-2-2-2-5---5\4-|
|-0-0-0-0-3\2-0-0-0-0-0-0-3-0-3\2-| 2x
  _______     ___________   _

(Gtr 2)
|-----------------------------------------|
|-----------------------------------------|
|-4"--5"--------------2"--3"--------------|
|---------4"-5"---------------2"-3"-------|
|---------------4"------------------2"----|
|------------------2"------------------0"-|

(Gtr 1)
|-----------------|
|-----------------|
|-2"--3"----------|
|---------2"-3"---|
|---------------2-|
|-----------------|

(Gtr 2)
|----------------------|
|-12"--13"-------------|
|-----------12"-13"----|
|-------------------12-|
|----------------------|
|----------------------|
  ____________________

  Visit MetalTabs.com for more metal tablature

bottom separator

Contact Us | Privacy Policy | Disclaimer | Legal Notice
Copyright © 2001-2014 MetalTabs.com. All Rights Reserved.