top separator

Home

Forum

What's New

Submit a Tab

FAQ

Links

Contact Us

Link to Us

MuSpy.com

MetalTabs.com logo

Bands

0-9

A

B

C

D

E

F

G

H

I

J

K

L

M

N

O

P

Q

R

S

T

U

V

W

X

Y

Z

Search

What

Where
 

Grave - "Bloodfed" Guitar Tab

Plain Text Version
More Grave Tabs

Hits: 2379
Updated: 2004-06-13 06:48:36

 

By:

sendpm.gif

email.gif

Important note
We did our best to reach Grave and ask for their permission to publish this tab. Unfortunately they did not respond to our requests or we could not find a way to contact them. This tab is available online until Grave tells us to take it down.


#----------------------------------PLEASE NOTE---------------------------------#
#This file is the author's own work and represents their interpretation of the #
#song. You may only use this file for private study, scholarship, or research. #
#Unless specified otherwise, this is NOT an official tab from the band members.#
#------------------------------------------------------------------------------#

  Visit MetalTabs.com for more metal tablature
  
Made by: ThrashFire (Germany)
Contact: wicked-jack@freenet.de

================================================================================

Hey you metalheads!

And here is “Bloodfed”, also a really cool song. The best is the groove of the
chorus – and the double bass drum part in the verse... ah, wonderful... ;-)
But the bad thing is that the tempo changes nearly every riff and there are, as
always on this album, many changes (wether the chords are staccato-played are
not) and harmonics – and this time I did not tab any version, please listen to
the song for that stuff...
I guess this tab seems worse than the ones before... ;-)

But no matter, enjoy and raise a little hell!


Notation:
/      =  slide up                        \      =  slide down
~      =  vibrato                         ....   =  palm mute
b      =  bend                            r      =  release
/  3  \  =  notes between the slashes are triplets
(rest is explained within the tab)

================================================================================
Tuning:  B-Tuning  B-E-A-D-F#-B


Main Riff
|+-------+-------+-------+-------|+-------+-------+--------+--------|
|--------------------------------|----------------------------------|
|--------------------------------|----------------------------------|
|--------------------------------|--------------*-------------------|
|2-------2-2---2-3---2---2-2-2---|3---6---2-2-2---8--11-11-11-11-10\|
|0-------0-0---0-1---0---0-0-0---|1---4---0-0-0---------------------|

* the riff is played again at 3:17, at 3:20 stop at this point and slide down
from about the 8th fret

Verse Riff
|+-------+-------+-------+-------|+-------+-------+-------+-------|
|--------------------------------|--------------------------------|
|--------------------------------|--------------------------------|
|2-------------------------------|--------------------------------|
|2-----------------------8-7-3-5~|--2-2-------------------------3-|
|0-------------------------------|--0-0-------------------------1-|
                                    .                     End 1     End 2
|+-------+-------+-------+-------|+-------+-------+-------+-------| |+-------|
|--------------------------------|--------------------------------| |--------|
|--------------------------------|--------------------------------| |--------|
|2-------------------------------|--------------------------------| |--------|
|2-----------------------8-7-3-5~|--2-2-----------3-------6---5---| |6-6-6-5-|
|0-------------------------------|--0-0-----------1-------4---3---| |4-4-4-3-|
                                    .
Bridge                                                    End 1     End 2
|+-------+-------+-------+-------|+-------+-------+-------+-------| |+-------|
|--------------------------------|--------------------------------| |--------|
|--------------------------------|--------------------------------| |--------|
|-------(----7-6~~)--------------|-------(---10-9~~)--------------| |--------|
|7-7-6--(7-8------)--------------|7-7-6--(7-8------)----------2---| |----3---|
|5-5-4---------------------------|5-5-4-------------1-1-1-1-1-0---| |1-1-1---|
-> the end of the riff is really not easy to get, but that sounds okay...
-> the notes in brackets are played from another guitar in the background

Riff 2 A
|+-------+-------+-------+-------|+-------+-------+-------+-------|
|--------------------------------|--------------------------------|
|--------------------------------|--------------------------------|
|2-------------------------------|----------------7'7'---10'10'-\-|
|2-------------------------------|2---------------5'5'----8'8'--\-|
|0-----------------------3b4r3---|0-------------------------------|

Riff 2 B
|+-------+-------+-------+-------|+-------+-------+-------+-------|
|--------------------------------|--------------------------------|
|--------------------------------|--------------------------------|
|2-------------------------------|----------------7'7'---10'10'---|
|2---7-7p5-----------------------|2---7-7p5-------5'5'----8'8'----|
|0-----------7---6---5---3b4r3---|0-----------7-------------------|

End Riff
|+-------+-------+-------+-------|+-------+-------+-------+-------|
|--------------------------------|--------------------------------|
|--------------------------------|--------------------------------|
|----------------0---------------|2-------------------------------|
|2-------2-2---2-1---2---2-2---2-|3---2---2-2---------------------|
|0-------0-0---0-----0---0-0---0-|----0---0-0-----1---4-4-4-4-3---|


Song Order:
(0:00) – Main Riff (2x) as Intro
(0:12) – Verse Riff (1x) - just End 2 and a staccato-played C5!
(0:24) – Verse Riff (1x)
(0:48) – Bridge Riff (1x)
(0:58) – Verse Riff (1x)
(1:22) – Bridge Riff (1x)
(1:32) – Main Riff (4x) as Chorus
(1:53) – Riff 2A (2x)
(2:04) – Riff 2B (4x)
(2:25) – Bridge Riff (2x)
(2:46) – Riff 2A (2x)
(2:56) – Riff 2B (4x)
(3:17) – Main Riff (1x)
(3:23) – Verse Riff (1x) (one time you play 'together with the double bass' on
         the B-string – just listen...)
(3:47) – Main Riff (4x) as Chorus
(4:08) – End Riff (8x)
End on (4:48)

  Visit MetalTabs.com for more metal tablature

bottom separator

Contact Us | Privacy Policy | Disclaimer | Legal Notice
Copyright © 2001-2014 MetalTabs.com. All Rights Reserved.