top separator

Home

Forum

What's New

Submit a Tab

FAQ

Links

Contact Us

Link to Us

MetalTabs.com logo

Bands

0-9

A

B

C

D

E

F

G

H

I

J

K

L

M

N

O

P

Q

R

S

T

U

V

W

X

Y

Z

Search

What

Where
 

Napalm Death - "Breed To Breath" Bass Tab

Plain Text Version
More Napalm Death Tabs

Hits: 6162
Rated: 5.00 out of 5 (3 votes)
Updated: 2004-06-11 15:43:24

 

By:

mikeslaughter

sendpm.gif

email.gif

Important note
This tab is available online because we obtained explicit permission from Napalm Death or their label.


#----------------------------------PLEASE NOTE---------------------------------#
#This file is the author's own work and represents their interpretation of the #
#song. You may only use this file for private study, scholarship, or research. #
#Unless specified otherwise, this is NOT an official tab from the band members.#
#------------------------------------------------------------------------------#

  Visit MetalTabs.com for more metal tablature
  
Band:  Napalm Death
Album: Inside The Torn Apart
Song:  Breed To Breathe

Copyright (c)  Earache 1997

Transcribed By: Michael Slaughter
Email:          redear16@hotmail.com

E ||----------------------------|----------------------------|
B ||----------------------------|----------------------------|
F#||--4--5----------------------|--4--5----------------------|
C#||--------0-0--0-0--0--0-0--0-|--------0-0--0-0--0--0-0--0-|



----------------------------|----------------------------|
----------------------------|----------------------------|
--4--5----------------------|-----5----------------------|
--------0-0--0-0--0--0-0--0-|--4-----0-0--0-0--0--0-0--0-|



----------------------------|----------------------------|
----------------------------|----------------------------|
--4--5----------------------|--4--5----------------------|
--------0-0--0-0--0--0-0--0-|--------0-0--0-0--0--0-0--0-|



----------------------------|----------------------------|
----------------------------|----------------------------|
--4--5----------------------|-----5----------------------|
--------0-0--0-0--0--0-0--0-|--4-----0-0--0-0--0--0-0--0-|



----------------------------|----------------------------|
----------------------------|----------------------------|
--4--5----------------------|--4--5----------------------|
--------0-0--0-0--0--0-0--0-|--------0-0--0-0--0--0-0--0-|



----------------------------|----------------------------|
----------------------------|----------------------------|
--4--5----------------------|-----5----------------------|
--------0-0--0-0--0--0-0--0-|--4-----0-0--0-0--0--0-0--0-|



----------------------------|----------------------------|
----------------------------|----------------------------|
--4--5----------------------|--4--5----------------------|
--------0-0--0-0--0--0-0--0-|--------0-0--0-0--0--0-0--0-|



----------------------------|----------------------------|
----------------------------|----------------------------|
--4--5----------------------|-----5----------------------|
--------0-0--0-0--0--0-0--0-|--4-----0-0--0-0--0--0-0--0-|



----------------------------|----------------------------|
----------------------------|----------------------------|
--4--5----------------------|--4--5----------------------|
--------0-0--0-0--0--0-0--0-|--------0-0--0-0--0--0-0--0-|



----------------------------|----------------------------|
----------------------------|----------------------------|
--4--5----------------------|-----5----------------------|
--------0-0--0-0--0--0-0--0-|--4-----0-0--0-0--0--0-0--0-|



----------------------------|----------------------------|
----------------------------|----------------------------|
--7------------7------------|--7-------------------------|
-----6--0-0--0----6--0-0--0-|-----6--0-0--0-3--0-3--0-2--|



----------------------------|----------------------------|
----------------------------|----------------------------|
--7------------7------------|--7-------------------------|
-----6--0-0--0----6--0-0--0-|-----6--0-0--0-3--0-3--0-2--|



----------------------------|----------------------------|
----------------------------|----------------------------|
--7------------7------------|--7-------------------------|
-----6--0-0--0----6--0-0--0-|-----6--0-0--0-3--0-3--0-2--|



----------------------------|----------------------------|
----------------------------|----------------------------|
--7------------7------------|--7-------------------------|
-----6--0-0--0----6--0-0--0-|-----6--0-0--0-3--0-3--0-2--|



----------------------------|----------------------------|
----------------------------|----------------------------|
--4--5----------------------|--4--5----------------------|
--------0-0--0-0--0--0-0--0-|--------0-0--0-0--0--0-0--0-|



----------------------------|----------------------------|
----------------------------|----------------------------|
--4--5----------------------|-----5----------------------|
--------0-0--0-0--0--0-0--0-|--4-----0-0--0-0--0--0-0--0-|



----------------------------|----------------------------|
----------------------------|----------------------------|
--4--5----------------------|--4--5----------------------|
--------0-0--0-0--0--0-0--0-|--------0-0--0-0--0--0-0--0-|



----------------------------|----------------------------|
----------------------------|----------------------------|
--4--5----------------------|-----5----------------------|
--------0-0--0-0--0--0-0--0-|--4-----0-0--0-0--0--0-0--0-|



----------------------------|----------------------------|
----------------------------|----------------------------|
--7------------7------------|--7-------------------------|
-----6--0-0--0----6--0-0--0-|-----6--0-0--0-3--0-3--0-2--|



----------------------------|----------------------------|
----------------------------|----------------------------|
--7------------7------------|--7-------------------------|
-----6--0-0--0----6--0-0--0-|-----6--0-0--0-3--0-3--0-2--|



----------------------------|----------------------------|
----------------------------|----------------------------|
--7------------7------------|--7-------------------------|
-----6--0-0--0----6--0-0--0-|-----6--0-0--0-3--0-3--0-2--|



----------------------------|----------------------------|
----------------------------|----------------------------|
--7------------7------------|--7-------------------------|
-----6--0-0--0----6--0-0--0-|-----6--0-0--0-3--0-3--0-2--|



--------------------------------|--------------------|
--------------------------------|--------------------|
--7---------3----5----3----5----|--------------------|
-------6------------------------|--0--0--------------|



--------------------------------|--------------------|
--------------------------------|--------------------|
--7---------3----5----3----5----|--------------------|
-------6------------------------|--1--3--------------|



--------------------------------|--------------------|
--------------------------------|--------------------|
--7---------3----5----3----5----|--------------------|
-------6------------------------|--0--0--------------|



--------------------------------|--------------------|
--------------------------------|--------------------|
--7---------3----5----3----5----|--------------------|
-------6------------------------|--1--3--------------|



--------------------------------|------------------------------|
--------------------------------|------------------------------|
--7---------3----5----3----5----|----------------3-------------|
-------6------------------------|--0--0-0--0-0-0----0-0--0-0-0-|



--------------------------------|------------------------------|
--------------------------------|------------------------------|
--7---------3----5----3----5----|------------------------------|
-------6------------------------|--6--6-6--6-6-6-5--6-6--6-6-6-|



--------------------------------|------------------------------|
--------------------------------|------------------------------|
--7---------3----5----3----5----|----------------3-------------|
-------6------------------------|--0--0-0--0-0-0----0-0--0-0-0-|



--------------------------------|------------------------------|
--------------------------------|------------------------------|
--7---------3----5----3----5----|------------------------------|
-------6------------------------|--6--6-6--6-6-6-5--6-6--6-6-6-|



----------------------------|----------------------------|
----------------------------|----------------------------|
--7--7---------7--7---------|----------------------------|
--------0-0--0-------0-0--0-|--3--3--0-0--0-3--3--0-0--0-|



----------------------------|----------------------------|
----------------------------|----------------------------|
--7--7---------7--7---------|----------------------------|
--------0-0--0-------0-0--0-|--3--3--0-0--0-3--3--0-0--0-|



----------------------------|----------------------------|
----------------------------|----------------------------|
--7--7---------7--7---------|----------------------------|
--------0-0--0-------0-0--0-|--3--3--0-0--0-3--3--0-0--0-|



----------------------------|----------------------------|
----------------------------|----------------------------|
--7--7---------7--7---------|----------------------------|
--------0-0--0-------0-0--0-|--3--3--0-0--0-3--3--0-0--0-|



----------------------------|----------------------------|
----------------------------|----------------------------|
--4--5----------------------|--4--5----------------------|
--------0-0--0-0--0--0-0--0-|--------0-0--0-0--0--0-0--0-|



----------------------------|----------------------------|
----------------------------|----------------------------|
--4--5----------------------|-----5----------------------|
--------0-0--0-0--0--0-0--0-|--4-----0-0--0-0--0--0-0--0-|



----------------------------|----------------------------|
----------------------------|----------------------------|
--4--5----------------------|--4--5----------------------|
--------0-0--0-0--0--0-0--0-|--------0-0--0-0--0--0-0--0-|



----------------------------|----------------------------|
----------------------------|----------------------------|
--4--5----------------------|-----5----------------------|
--------0-0--0-0--0--0-0--0-|--4-----0-0--0-0--0--0-0--0-|



----------------------------|----------------------------|
----------------------------|----------------------------|
--7------------7------------|--7-------------------------|
-----6--0-0--0----6--0-0--0-|-----6--0-0--0-3--0-3--0-2--|



----------------------------|----------------------------|
----------------------------|----------------------------|
--7------------7------------|--7-------------------------|
-----6--0-0--0----6--0-0--0-|-----6--0-0--0-3--0-3--0-2--|



----------------------------|----------------------------|
----------------------------|----------------------------|
--7------------7------------|--7-------------------------|
-----6--0-0--0----6--0-0--0-|-----6--0-0--0-3--0-3--0-2--|



----------------------------|----------------------------|
----------------------------|----------------------------|
--7------------7------------|--7-------------------------|
-----6--0-0--0----6--0-0--0-|-----6--0-0--0-3--0-3--0-2--|



--------------------------------|--------------------|
--------------------------------|--------------------|
--7---------3----5----3----5----|--------------------|
-------6------------------------|--0--0--------------|



--------------------------------|--------------------|
--------------------------------|--------------------|
--7---------3----5----3----5----|--------------------|
-------6------------------------|--1--3--------------|



--------------------------------|--------------------|
--------------------------------|--------------------|
--7---------3----5----3----5----|--------------------|
-------6------------------------|--0--0--------------|



--------------------------------|--------------------|
--------------------------------|--------------------|
--7---------3----5----3----5----|--------------------|
-------6------------------------|--1--3--------------|



--------------------------------|------------------------------|
--------------------------------|------------------------------|
--7---------3----5----3----5----|----------------3-------------|
-------6------------------------|--0--0-0--0-0-0----0-0--0-0-0-|



--------------------------------|------------------------------|
--------------------------------|------------------------------|
--7---------3----5----3----5----|------------------------------|
-------6------------------------|--6--6-6--6-6-6-5--6-6--6-6-6-|



--------------------------------|------------------------------|
--------------------------------|------------------------------|
--7---------3----5----3----5----|----------------3-------------|
-------6------------------------|--0--0-0--0-0-0----0-0--0-0-0-|



--------------------------------|------------------------------|
--------------------------------|------------------------------|
--7---------3----5----3----5----|------------------------------|
-------6------------------------|--6--6-6--6-6-6-5--6-6--6-6-6-|



----------------------------|----------------------------|
----------------------------|----------------------------|
--7--7---------7--7---------|----------------------------|
--------0-0--0-------0-0--0-|--3--3--0-0--0-3--3--0-0--0-|



----------------------------|----------------------------|
----------------------------|----------------------------|
--7--7---------7--7---------|----------------------------|
--------0-0--0-------0-0--0-|--3--3--0-0--0-3--3--0-0--0-|



----------------------------|----------------------------|
----------------------------|----------------------------|
--7--7---------7--7---------|----------------------------|
--------0-0--0-------0-0--0-|--3--3--0-0--0-3--3--0-0--0-|



----------------------------|----------------------------|
----------------------------|----------------------------|
--7--7---------7--7---------|----------------------------|
--------0-0--0-------0-0--0-|--3--3--0-0--0-3--3--0-0--0-|



----------------------------|----------------------------|
----------------------------|----------------------------|
--7--7---------7--7---------|----------------------------|
--------0-0--0-------0-0--0-|--3--3--0-0--0-3--3--0-0--0-|



----------------------------|----------------------------|
----------------------------|----------------------------|
--7--7---------7--7---------|----------------------------|
--------0-0--0-------0-0--0-|--3--3--0-0--0-3--3--0-0--0-|



----------------------------|----------------------------|
----------------------------|----------------------------|
--7--7---------7--7---------|----------------------------|
--------0-0--0-------0-0--0-|--3--3--0-0--0-3--3--0-0--0-|



----------------------------|----------------------------|--------------------||
----------------------------|----------------------------|--------------------||
--7--7---------7--7---------|----------------------------|--------------------||
--------0-0--0-------0-0--0-|--3--3--0-0--0-3--3--0-0--0-|--0--0--------------||

  Visit MetalTabs.com for more metal tablature

bottom separator

Contact Us | Privacy Policy | Disclaimer | Legal Notice
Copyright © 2001-2014 MetalTabs.com. All Rights Reserved.