top separator

Home

Forum

What's New

Submit a Tab

FAQ

Links

Contact Us

Link to Us

MetalTabs.com logo

Bands

0-9

A

B

C

D

E

F

G

H

I

J

K

L

M

N

O

P

Q

R

S

T

U

V

W

X

Y

Z

Search

What

Where
 

Sacred Steel - "Faces Of The Antichrist" Guitar Tab

Plain Text Version
More Sacred Steel Tabs

Hits: 2473
Updated: 2004-06-11 15:42:43

 

By:

sendpm.gif

email.gif

Important note
This tab is available online because we obtained explicit permission from Sacred Steel or their label.


#----------------------------------PLEASE NOTE---------------------------------#
#This file is the author's own work and represents their interpretation of the #
#song. You may only use this file for private study, scholarship, or research. #
#Unless specified otherwise, this is NOT an official tab from the band members.#
#------------------------------------------------------------------------------#

  Visit MetalTabs.com for more metal tablature
  
Made by: ThrashFire (Germany)
Contact: wicked-jack@freenet.de

================================================================================

Hey you metalheads!

Here are some songs from Sacred Steel, the German True Metal band with the most
unconventional singer... ;-)
I really like their 2002 album “Slaughter prophecy” and so I sat down and
inhaled the metal for you... (as always, the tab should be good enough to play
it) Have fun with these ass-kicking songs...

And this is my favourite song: “Faces of the antichrist”. Damn, this song is
great! You may wonder about the chords in the chorus, but I think they’re right,
but even if not: they sound good!

Enjoy and raise a little hell!


Notation:
....   =  palm mute                        /   =  slide up
‘      =  staccato                         \   =  slide down
/  3  \   =  notes between slashes are played as triplets

================================================================================
Tuning: D-Tuning (D-G-C-F-A-d) (1 step down)
Tempo: ca. 177 bpm


Main Riff
|+-------+-------+-------+-------|+-------+-------+-------+-------|
|------------------------/--3--\-|------------------------/--3--\-|
|--------------------------------|--------------------------------|
|9-------9-------9-------9-10-10-|9-------9-------9-------9-10-10-|
|7-------7-------7-------7--7--7-|7-------7-------7-------7--7--7-|
|--000000--000000--000000--------|--000000--000000--000000--------|
   ......  ......  ......           ......  ......  ......
|+-------+-------+-------+-------|+-------+-------+-------+-------|
|------------------------/--3--\-|------------------------/--3--\-|
|--------------------------------|--------------------------------|
|9-------9-------9-------9-10-10-|9-------9-------7-------5--4--5-|
|7-------7-------7-------7--7--7-|7-------7-------5-------5-(5)(5)|
|--000000--000000--000000--------|--000000--000000--000000--0--0--|
   ......  ......  ......           ......  ......  ......

Bridge Riff
|+-------+-------+-------+-------|+-------+-------+-------+-------|
|------------------------/--3--\-|------------------------/--3--\-|
|--------------------------------|--------------------------------|
|9-----------------------7’-7’-7’|9-----------------------7’-7’-7’|
|7-----------------------5’-5’-5’|7-----------------------5’-5’-5’|
|--------------------------------|--------------------------------|

|+-------+-------+-------+-------|+-------+-------+-------+-------|
|------------------------/--3--\-|--------------------------------|
|--------------------------------|--------------------------------|
|9-----------------------7’-7’-7’|5---------------5---------------|
|7-----------------------5’-5’-5’|3---------------2------(2)------|
|--------------------------------|------------------------3~------|

Chorus Riff
|+-------+-------+-------+-------|+-------+-------+-------+-------|
|--------------------------------|--------------------------------|
|--------------------------------|--------------------------------|
|--------------------------------|7-----------5---5------(5)------|
|2-----------5---5-------5-------|5-----------2---3-------2~------|
|0-----------2---3-------2-------|----------------------------3~--|

|+-------+-------+-------+-------|+-------+-------+-------+-------|
|--------------------------------|--------------------------------|
|--------------------------------|--------------------------------|
|--------------------------------|7---------------5---------------|
|2-----------5---5-------5-------|5---------------3---------------|
|0-----------2---3-------2-------|--------------------------------|

Riff 2
|+-------+-------+-------+-------|+-------+-------+-------+-------|
|--------------------------------|--------------------------------|
|--------------------------------|--------------------------------|
|9-------10------9-------5\4-5\4-|9-------10------------0022332200|
|7-------8-------7-------3\2-3\2-|7-------8-------002233----------|
|--000000--000000--000000--------|--000000--000000----------------|
   ......  ......  ......           ......  .....(................)


Song Order:
(0:00) – Main Riff (2x) as Intro
(0:22) – Main Riff (2x) as Verse
(0:43) – Bridge Riff (1x)
(0:54) – Chorus Riff (2x)
(1:16) – Main Riff (3x) as Bridge to Verse and Verse (1:27)
(1:49) – Bridge Riff (1x)
(2:00) – Chorus Riff (2x)
(2:22) – Riff 2 (4x)
(2:43) – Main Riff (1x) with Solo
(2:55) – Main Riff (2x) as Verse
(3:16) – Bridge Riff (1x)
(3:27) – Chorus Riff (2x)
(3:49) – Main Riff (1x)
End (4:01) on D5 on A- and D-string

  Visit MetalTabs.com for more metal tablature

bottom separator

Contact Us | Privacy Policy | Disclaimer | Legal Notice
Copyright © 2001-2014 MetalTabs.com. All Rights Reserved.