top separator

Home

Forum

What's New

Submit a Tab

FAQ

Links

Contact Us

Link to Us

MuSpy.com

MetalTabs.com logo

Bands

0-9

A

B

C

D

E

F

G

H

I

J

K

L

M

N

O

P

Q

R

S

T

U

V

W

X

Y

Z

Search

What

Where
 

Sacred Steel - "Sacred Bloody Steel" Guitar Tab

Plain Text Version
More Sacred Steel Tabs

Hits: 2527
Updated: 2004-06-11 15:42:35

 

By:

sendpm.gif

email.gif

Important note
This tab is available online because we obtained explicit permission from Sacred Steel or their label.


#----------------------------------PLEASE NOTE---------------------------------#
#This file is the author's own work and represents their interpretation of the #
#song. You may only use this file for private study, scholarship, or research. #
#Unless specified otherwise, this is NOT an official tab from the band members.#
#------------------------------------------------------------------------------#

  Visit MetalTabs.com for more metal tablature
  
Made by: ThrashFire (Germany)
Contact: wicked-jack@freenet.de

================================================================================

Hey you metalheads!

Here are some songs from Sacred Steel, the German True Metal band with the most
unconventional singer... ;-)
I really like their 2002 album “Slaughter prophecy” and so I sat down and
inhaled the metal for you... (as always, the tab should be good enough to play
it) Have fun with these ass-kicking songs...

This is “Sacred bloody steel” – true as hell can be! IMO even better than “Raise
the metal fist”! Really cool song.

Enjoy and raise a little hell!


Notation:
....   =  palm mute                        /   =  slide up
‘      =  staccato                         \   =  slide down
/  3  \   =  notes between slashes are played as triplets

================================================================================
Tuning: D-Tuning (D-G-C-F-A-d) (1 step down)
Tempo: ca. 160 bpm


Intro Riff Part 1
Guitar I
|+--------+--------+--------+--------|+--------+-------+-------+-------|
|------------------------------------|---------------------------------|
|------------------------------------|---------------------------------|
|2-----------------2’----------------|2--------------------------------|
|2---------------2-2’----------------|2--------------------------------|
|0---------------0-0’----------------|0----------------7\5-5\3-3/5-5---|
                 .
Guitar II
|+--------+--------+--------+--------|+--------+-------+-------+-------|
|-------------------------10---------|---------------------------------|
|9-11-12-9---------9-11-12----12-11--|9-11-12-9--------9\7-7\5-5/7-7---|
|------------------------------------|---------------------------------|
|------------------------------------|---------------------------------|
|------------------------------------|---------------------------------|

Intro Riff Part 2
Guitar I
|+--------+--------+--------+--------|+--------+-------+-------+-------|
|------------------------------------|---------------------------------|
|------------------------------------|---------------------------------|
|-------------------------7----------|---------------------------------|
|7-9--10-7---------7-9--10----10-11--|7-9--10-7--------7\5-5\3-3/5-5---|
|------------------------------------|---------------------------------|
Guitar II
|+--------+--------+--------+--------|+--------+-------+-------+-------|
|-------------------------10---------|---------------------------------|
|9-11-12-9---------9-11-12----12-11--|9-11-12-9--------9\7-7\5-5/7-7---|
|------------------------------------|---------------------------------|
|------------------------------------|---------------------------------|
|------------------------------------|---------------------------------|

Verse Riff
|+-------+-------+-------+-------|+-------+-------+-------+-------|
|--------------------------------|--------------------------------|
|--------------------------------|--------------------------------|
|9-------------7-9-------10-9-7--|--------------------------------|
|7-7777777777775-7777777-------10|10----10----10--9-----------5-3-|
|--------------------------------|8-88888-88888-887-7777777-8-----|
   ............   ......            ....  .... ..   ....... . . .

Pre-Chorus Riff
|+-------+-------+-------+-------|+-------+-------+-------+-------|
|--------------------------------|--------------------------------|
|--------------------------------|--------------------------------|
|--------------------------------|--------------------------------|
|5-------5-------7-------7-------|9-------9------10-9’-10-9’-10-9’|
|3---33333---33335---55555---5555|7---77777---77778-7’--8-7’--8-7’|
     ....    ....    ....    .....    ....    ....

Chorus Riff Part 1
|+-------+-------+-------+-------|+-------+-------+-------+-------|
|--------------------------------|--------------------------------|
|--------------------------------|--------------------------------|
|9---------------7---------------|9---------------12----12----12--|
|7----------10-9-5-----------5-9-|7---------------1010109999991010|
|0-------------------------------|--------------------------------|
             . .             . .                   ..... ..... ...
Chorus Riff Part 2
|+-------+-------+-------+-------|+-------+-------+-------+-------|
|--------------------------------|--------------------------------|
|--------------------------------|--------------------------------|
|9---------------7---------------|9---------------12----12----12--|
|7-77777777710-9-5-55555555555-9-|7-777777777777771010109999991010|
|--------------------------------|--------------------------------|
   ......... . .   ........... .    .............. ..... ..... ...

Background melody (another Guitar in the background of the Chorus Riff Part 2)
|+-------+-------+-------+-------|+-------+-------+-------+-------|
|----------------/-----3-----\---|----------------/-----3------\--|
|--------------------------------|--------------------------------|
|9----------9h10-12----10----9---|9-----------10---------------7--|
|--------------------------------|----------------9-----10--------|
|--------------------------------|--------------------------------|

|+-------+-------+-------+-------|+-------+-------+-------+-------|
|----------------/-----3-----\---|/-----3-----\---/-----3------\--|
|--------------------------------|--------------------------------|
|9----------9h10-12----10----9---|7-------------------------------|
|--------------------------------|------10----9---10----9------7~-|
|--------------------------------|--------------------------------|
(I hope that’s it, because that was not easy to get...)

Solo Backing Riff
|+-------+-------+-------+-------|+-------+-------+-------+-------|
|--------------------------------|--------------------------------|
|--------------------------------|--------------------------------|
|9-----9-----9---7-----7-----7---|5-----5-----5---4-----5-----4---|
|7-77777-77777-775-55555-55555-55|3-33333-33333-332-22223-33332-22|
|--------------------------------|--------------------------------|
   ....  ....  ..  ....  ....  ..   ....  ....  ..  ....  ....  ..

Riff 2
Part A
|+-------+-------+-------+-------|+-------+-------+-------+-------|
|--------------------------------|--------/--3--\-----------------|
|--------/--3--\-----------------|9-------------------------------|
|9-------------------------------|7-------7--9-10-9~-----(7)------|
|7-------7--9-10-9~------5~------|------------------------5~------|
|--------------------------------|--------------------------------|
Part B
|+-------+-------+-------+-------|+-------+-------+-------+-------|
|--------------------------------|--------/--3--\-/--3--\-/--3--\-|
|--------/--3--\-----------------|9-------------------------------|
|9-------------------------------|7-------7--9-10-12-10-9-7-------|
|7-------7--9-10-9~------5~------|---------------------------10-9-|
|--------------------------------|--------------------------------|


Song Order:
(0:00) – Intro Riff Part 1 (2x)
(0:12) – Intro Riff Part 2 (2x)
(0:24) – Verse Riff (4x)
(0:48) – Pre-Chorus Riff (2x)
(1:00) – Chorus Riff Part 1 (2x) and then Part 2 (2x) with the background melody
(1:24) – Verse Riff (4x)
(1:48) – Pre-Chorus Riff (2x)
(2:00) – Chorus Riff Part 1 (2x) and then Part 2 (2x) with the background melody
(2:24) – Solo Backing Riff (4x) with Solo
(2:48) – Riff (2x) (first, one guitar plays Part A while the other one plays
         Part B, then both play Part A - and then this is repeated...)
(3:12) – Chorus Riff Part 1 (2x) and then Part 2 (2x) (without the background
         melody!)
End (3:36) on D5 on A- and D-string

  Visit MetalTabs.com for more metal tablature

bottom separator

Contact Us | Privacy Policy | Disclaimer | Legal Notice
Copyright © 2001-2014 MetalTabs.com. All Rights Reserved.