top separator

Home

Forum

What's New

Submit a Tab

FAQ

Links

Contact Us

Link to Us

MetalTabs.com logo

Bands

0-9

A

B

C

D

E

F

G

H

I

J

K

L

M

N

O

P

Q

R

S

T

U

V

W

X

Y

Z

Search

What

Where
 

Sacred Steel - "Slaughter Prophecy" Guitar Tab

Plain Text Version
More Sacred Steel Tabs

Hits: 2553
Updated: 2004-06-11 15:42:27

 

By:

sendpm.gif

email.gif

Important note
This tab is available online because we obtained explicit permission from Sacred Steel or their label.


#----------------------------------PLEASE NOTE---------------------------------#
#This file is the author's own work and represents their interpretation of the #
#song. You may only use this file for private study, scholarship, or research. #
#Unless specified otherwise, this is NOT an official tab from the band members.#
#------------------------------------------------------------------------------#

  Visit MetalTabs.com for more metal tablature
  
Made by: ThrashFire (Germany)
Contact: wicked-jack@freenet.de

================================================================================

Hey you metalheads!

Here are some songs from Sacred Steel, the German True Metal band with the most
unconventional singer... ;-)
I really like their 2002 album “Slaughter prophecy” and so I sat down and
inhaled the metal for you... (as always, the tab should be good enough to play
it) Have fun with these ass-kicking songs...

Here’s the title track – really crushing song and with really nice vocals... ;-)
more of this!

Enjoy and raise a little hell!


Notation:
....   =  palm mute                        /   =  slide up
‘      =  staccato                         \   =  slide down
/  3  \   =  notes between slashes are played as triplets

================================================================================
Tuning: D-Tuning (D-G-C-F-A-d) (1 step down)
Tempo: ca. 192 bpm


Intro Riff  (0:00)  (4x)
|+-------+-------+-------+-------|+-------+-------+-------+-------|
|--------------------------------|----------------/-----3-----\---|
|--------------------------------|--------------------------------|
|2---------------7-------3-------|2---------------5-----5-----3---|
|2---------------7-------3-------|2---------------5-----5-----3---|
|0---------------5-------1-------|0---------------3-----3-----1---|

Verse Riff  (0:00)  (4x)
|+-------+-------+-------+-------|+-------+-------+-------+-------|
|--------------------------------|--------------------------------|
|--------------------------------|--------------------------------|
|--------------------------------|--------------------------------|
|2---------------5-----5-----5---|2---------------8-7---5---3---2-|
|00000000000000003333333333333333|0000000000000000----0---0---0---|
 ................ ..... ..... ...  ...............    .   .   .

Pre-Chorus Riff
|+-------+-------+-------+-------|+-------+-------+-------+-------|
|--------------------------------|--------------------------------|
|--------------------------------|--------------------------------|
|--------------------------------|2-----3’--3’--3’2-----3’--3’--3’|
|2-----3’--3’--3’2-----3’--3’--3’|0000001---1---1-0000001---1---1-|
|0000001---1---1-0000001---1---1-|--------------------------------|
  .....           .....            .....           .....
|+-------+-------+-------+-------|
|--------------------------------|
|--------------------------------|
|--------------------------------|
|5-----5’--5’--5’3-----3’--3’--3’|
|3333333---3---3-1111111---1---1-|
  .....           .....

Chorus Riff
|+-------+-------+-------+-------|+-------+-------+-------+-------|
|--------------------------------|--------------------------------|
|--------------------------------|--------------------------------|
|--------10-\-----------10\9/10-\|--------10-\--------------------|
|2-------8--\----2-------8\7/8--\|2-------8--\----0000222233332222|
|0---000-----000-0---000---------|0---000-----000-----------------|
     ...     ...     ...              ...     ...(................)

Riff 2
|+-------+-------+-------+-------|+-------+-------+-------+--------|
|--------------------------------|---------------------------------|
|--------------------------------|---------------------------------|
|--------------------------------|---------------------------------|
|7-----8-7-----8-7-----8-7-8-10--|7-----8-7-----8-7-----8-7-8-10-8-|
|0---0-------0-------0-----------|0---0-------0-------0------------|
     .       .       .                .       .       .

Riff 3
|+-------+-------+-------+--------|+-------+-------+-------+---------|
|---------------------------------|----------------------------------|
|---------------------------------|----------------------------------|
|-----10-9----10-9----10-9-10-12--|-----10-9----10-9----10-9-10-12-10|
|2--------------------------------|2---------------------------------|
|0---0-------0-------0------------|0---0-------0-------0-------------|
     .       .       .                .       .       .

End
|+-------+-------|+---
|----------------|----
|----------------|----
|----------------|2---
|2222333355553333|2---
|----------------|0---
(................)


Song Order:
(0:00) - Intro Riff (4x) then let D5 ring a while
(0:29) – Verse Riff (4x)
(0:49) – Pre-Chorus Riff (1x)
(0:56) – Chorus Riff (5x)
(1:22) – Verse Riff (4x)
(1:42) – Pre-Chorus Riff (1x)
(1:50) – Chorus Riff (5x)
(2:15) – Riff 2 (2x)
(2:25) – Riff 3 (2x) with Solo
(2:35) – Verse Riff (4x)
(2:55) – Pre-Chorus Riff (1x)
(3:03) – Chorus Riff (5x)
(3:28) – End (comes exactly after Chorus)

  Visit MetalTabs.com for more metal tablature

bottom separator

Contact Us | Privacy Policy | Disclaimer | Legal Notice
Copyright © 2001-2014 MetalTabs.com. All Rights Reserved.