top separator

Home

Forum

What's New

Submit a Tab

FAQ

Links

Contact Us

Link to Us

MuSpy.com

MetalTabs.com logo

Bands

0-9

A

B

C

D

E

F

G

H

I

J

K

L

M

N

O

P

Q

R

S

T

U

V

W

X

Y

Z

Search

What

Where
 

Dakrua - "The Outer Void" Guitar Tab

Plain Text Version
More Dakrua Tabs

Hits: 2224
Rated: 4.50 out of 5 (2 votes)
Updated: 2004-06-09 04:15:21

 

By:

sendpm.gif

email.gif

Important note
This tab is available online because we obtained explicit permission from Dakrua or their label.


#----------------------------------PLEASE NOTE---------------------------------#
#This file is the author's own work and represents their interpretation of the #
#song. You may only use this file for private study, scholarship, or research. #
#Unless specified otherwise, this is NOT an official tab from the band members.#
#------------------------------------------------------------------------------#

  Visit MetalTabs.com for more metal tablature
  
Ear-transcriptioned tab of the song "The Outer Void"
From the band "Dakrua"
From their album "Shifting Realities"

Copyright (c)  Scarlet Records 2002
Version 1.0 - 08/06/2004

Transcribed By CRaKaMoN/x2BoLLo
Email: x2bollo@hotmail.com

Standard Tune


0:00 - 0:07
        PM    PM                        PM     PM
E||-------------------------|     |----------------------------||
B||-------------------------|     |----------------------------||
G||-------------------------|     |----------------------------||
D||-------------------------| x3  |----------------------------||
A||-7S8---8S7---7S8-8S7-----|     |-7S8---8S10---10S8-8S7-7S8--||
E||-7S8-0-8S7-0-7S8-8S7-----|     |-7S8-0-8S10-0-10S8-8S7-7S8--||


0:07 - 0:14
       PM    PM         nh             PM     PM
||-------------------------|     |----------------------------||
||-------------------------|     |----------------------------||
||-------------------------|     |----------------------------||
||-------------------------| x3  |----------------------------||
||-7S8---8S7---7S8-8S7-<5>-|     |-7S8---8S10---10S8--8S7-7S8-||
||-7S8-0-8S7-0-7S8-8S7-----|     |-7S8-0-8S10-0-10S8--8S7-7S8-||


0:15 - 0:18
||--------||
||--------||
||--------||
||---7~---||
||---7~---||
||---5~---||


0:19
||--------------||
||--------------||
||--------------||
||--------------||
||-7-7-7-8-5-7--||
||--------------||


0:20 - 0:39
Repeat 2 times:
||-----------------------|     |---------------------------||
||-----------------------|     |---------------------------||
||---------9--------9----|     |---------9-----------------||
||-----------------------| x3  |---------------------------||
||-7-7-7-7---7--7-7---7--|     |-7-7-7-7---7--7-8-5-7-4-5--||
||-----------------------|     |---------------------------||


0:40 - 0:49
       PM   PM                        PM     PM
||------------------------|     |----------------------------||
||------------------------|     |----------------------------||
||------------------------|     |----------------------------||
||------------------------| x3  |----------------------------||
||-7S8---8----7S8-8S7-----|     |-7S8---8S10---10S8-8h7-7----||
||-7S8-0-8--0-7S8-8S7-----|     |-7S8-0-8S10-0-10S8-8h7-7----||


0:52 - 1:11
Repeat 2 times:
||-----------------------|     |---------------------------||
||-----------------------|     |---------------------------||
||---------9--------9----|     |---------9-----------------||
||-----------------------| x3  |---------------------------||
||-7-7-7-7---7--7-7---7--|     |-7-7-7-7---7--7-8-5-7-4-5--||
||-----------------------|     |---------------------------||


1:12 - 1:31
Repeat 2 times:
||--------|
||--------|
||--------|
||---7~---|
||---7~---|
||---5~---|

     PM----|   PM-|
|---------------------------------||
|---------------------------------||
|---------------------------------||
|---------------------------------||
|-2----------2------2--7-8-5-7----||
|-0--0-0-0-0-0--0-0-0-------------||


1:31 - 1:51
Repeat 2 times:
       PM   PM                PM-|
||-----------------------------------|
||-----------------------------------|
||-----------------------------------|
||-----------------------------------| x3
||-7S8---8----7S8-8S7-7h8-5h7--------|
||-7S8-0-8--0-7S8-8S7-7h8-5h7-0-0----|

      PM     PM
|--------------------------------------||
|--------------------------------------||
|--------------------------------------||
|--------------------------------------||
|-7S8---8S10---10S8-8S7-7h8-5h7-5h7----||
|-7S8-0-8S10-0-10S8-8S7-7h8-5h7-5h7----||


1:51 - 2:11
||-----------------------------------------------
||-----------------------------------------------
||-----------------------------------------------
||-----------------------------------------------
||------2--2------5---7-5------------2--2--------
||-3-0--0--0---/6---6-----5-6~--3-0--0--0--------


--------------------------------------------------
--------------------------------------------------
--------------------------------------------------
--------------------------------------------------
------2--2------5---7-5------------2--2~----------
-3-0--0--0---/6---6-----5-6~--3-0--0--0~-------0--


-----------------||
-----------------||
-----------------||
-----------------||
-----5~-----5~---||
-3-5----5-6------||


2:11 - 2:30
           PM-|     PM-|
||------------------------------------------
||------------------------------------------
||------------------------------------------
||------------------------------------------
||------22-------------------5---7-5--------
||-3-0--00--0-0-3-0--0-0--/6---6-----5-6~---


-------------------------------------------
-------------------------------------------
-------------------------------------------
-------------------------------------------
------22----5-6-7~--------------------5~---
-3-0--00--0--------0-0-3-4-5~-0-0-5-6------


         PM-|      PM-|
------------------------------------------
------------------------------------------
------------------------------------------
------------------------------------------
------22-------------------5---7-5--------
-3-0--00--0-0-3-0--0-0--/6---6-----5-6~---


-----------------------------------||
-----------------------------------||
-----------------------------------||
-----------------------------------||
------22--2~-----------5~-----5~---||
-3-0--00--0~----0--3-5----5-6------||


2:32 - 2:50
                                                   PM----------|
||---------------------------------------------------------------||
||---------------------------------------------------------------||
||---------------------------------------------------------------||
||---------------------------------------------------------------|| x4
||-------------------------------------------------3--3-3-3--3-3-||
||-3-0-0-5-0-0-6-0-8-0-6-0-5-6-6-6-3-0-0-5-0-0-6-0-1--1-1-1--1-1-||


2:51 - 3:00
||------||
||------||
||------||
||-2~---||
||-2~---||
||-0~---||


3:01 - 3:43
||------------------------------------|
||---------0--------------------------|
||-------0---0---0-----0-----0--------|
||-----2-------2-----2-----2-----2----| x13
||---2-------------3-----1-----2------|
||-0----------------------------------|


|------------------------------------||
|---------0--------------------------||
|-------0---0---0--------------------||
|-----2-------2---5-5-5-3-3-3-4-4----||
|---2-------------3-3-3-1-1-1-2-2----||
|-0----------------------------------||


3:44 - 3:56
Gtr. 1
                                PM---------|
||----------------------------------------------||
||----------------------------------------------||
||----------------------------------------------||
||----------------------------------------------|| x2
||-2-2-2-2-2-2-2-2-2-2-2-2-2-2------------------||
||-0-0-0-0-0-0-0-0-0-0-0-0-0-0--6-6-6--3-3-3----||


Gtr. 2
||-------------------------------------|
||-------------------------------------|
||-------------9----------10-----------|
||-----------9---------------9---------| x7
||-7-7-7-7-7------7-7-7-7------8-10----|
||-------------------------------------|


|-----------------------------||
|-----------------------------||
|-------------9----------9~---||
|-----------9----------9------||
|-7-7-7-7-7------7-7-7--------||
|-----------------------------||


3:56 - 4:09
||------------------------------------||
||------------------------------------||
||------------------------------------||
||------------------------------------|| x4
||---------5-6-7----------------------||
||-0-3-5-0-------0-3-5-0-2-3-0-2-3----||


4:09 - 4:20
  PM-|   PM----------------------|   PM-|
||-----------------------------------------------
||-----------------------------------------------
||-----------------------------------------------
||-----------------------------------------------
||-----5-----5-5-6-6-7~------------7-------------
||-0-0---0-0------------0-0-0--0-0----0-0-7-6~---


 PM-|  PM----------------------|   PM-|
-----------------------------------------------
-----------------------------------------------
-----------------------------------------------
----------------------------------------7-5~---
-----5-----5-5-6-6-7~------------7-------------
-0-0---0-0------------0-0-0--0-0----0-0--------


 PM-|  PM----------------------|   PM-|
-----------------------------------------------
-----------------------------------------------
-----------------------------------------------
-----------------------------------------------
-----5-----5-5-6-6-7~------------7-------------
-0-0---0-0------------0-0-0--0-0----0-0-7-6~---


 PM-|  PM----------------------|    PM----------------|
-----------------------------------------------------------||
-----------------------------------------------------------||
-----------------------------------------------------------||
-----------------------------------------------------------||
-----5-----5-5-6-6-7~------------7-------------------------||
-0-0---0-0------------0-0-0--0-0----0-0-7-7-7-7-6-6-5-5----||


4:20 - 4:33
||---------------------------------|
||---------------------------------|
||---------------------------------|
||---------------------------------| x4
||---------5-6-7-------------------|
||-0-3-5-0-------0-3-5-0-2-3-0-2-3-|

|------||
|------||
|------||
|--2---||
|--2---||
|--0---||


Tablature Legend
----------------
 h   - hammer-on
 p   - pull-off
 b   - bend
 pb  - pre-bend
 r   - bend release (if no number after the r, then release immediately)
 /\  - slide into or out of (from/to "nowhere")
 s   - legato slide
 S   - shift slide
<n>  - natural harmonic
[n]  - artificial harmonic
n(n) - tapped harmonic
 ~   - vibrato
 tr  - trill
 T   - tap
 TP  - trem. picking
 PM  - palm muting
\n/  - tremolo bar dip; n = amount to dip
 \n  - tremolo bar down
 n/  - tremolo bar up
/n\  - tremolo bar inverted dip
 =   - hold bend; also acts as connecting device for hammers/pulls
 <>  - volume swell (louder/softer)
 x   - on rhythm slash represents muted slash
 o   - on rhythm slash represents single note slash

  Visit MetalTabs.com for more metal tablature

bottom separator

Contact Us | Privacy Policy | Disclaimer | Legal Notice
Copyright © 2001-2014 MetalTabs.com. All Rights Reserved.