top separator

Home

Forum

What's New

Submit a Tab

FAQ

Links

Contact Us

Link to Us

MuSpy.com

MetalTabs.com logo

Bands

0-9

A

B

C

D

E

F

G

H

I

J

K

L

M

N

O

P

Q

R

S

T

U

V

W

X

Y

Z

Search

What

Where
 

Einherjer - "Wolf-Age" Guitar Tab

Plain Text Version
More Einherjer Tabs

Hits: 5430
Rated: 3.50 out of 5 (4 votes)
Updated: 2004-06-05 11:56:54

 

By:

Darkenelf

sendpm.gif

email.gif

Important note
This tab is available online because we obtained explicit permission from Einherjer or their label.


#----------------------------------PLEASE NOTE---------------------------------#
#This file is the author's own work and represents their interpretation of the #
#song. You may only use this file for private study, scholarship, or research. #
#Unless specified otherwise, this is NOT an official tab from the band members.#
#------------------------------------------------------------------------------#

  Visit MetalTabs.com for more metal tablature
  
Band: Einherjer
Album: Blot
Song: Wolf Age
Tabbed by: Martijn Wietsma
Tab Date: 04-06-2004
Email: northerland@yahoo.co.uk

Standard E Tuning

riff A
|---------------------------------------------------|
|---------------------------------------------------|
|---------------------------------------------------|(2x)
|----------8-----------8----------------------------|
|-77777777-6--77777777-6--77777777-777-666----------|
|-55555555----55555555----55555555---------777-000--|

riff B (0:17)
|-12--------11h12--------11-11h12--------12-11------|
|----13-10--------13-10-----------13-10--------12---|
|-------------------------------------------------9-|(4x)
|---------------------------------------------------|
|---------------------------------------------------|
|---------------------------------------------------|

riff C (0:42)
|---------------------------------------------------|
|---------------------------------------------------|
|---------------------------------------------------|(1x)
|-77777777----------5555------77777777--------------|
|-55555555-77777777-3333-5555-55555555--------------|
|----------55555555------3333-----------------------|

riff D (0:56)
|---------------------------------------------------|
|---------------------------------------------------|
|---------------------------------------------------|(1x)
|---------------------------------------------------|
|-222-222-222-222-222-777-777-777-777-777-----------|
|-000-000-000-000-000-555-555-555-555-555-----------|

|---------------------------------------------------|
|---------------------------------------------------|
|---------------------------------------------------|
|-777-777-777-/-9-9---------------------------------|
|-555-555-555-/-7-7--777-777-777-777-777------------|
|--------------------555-555-555-555-555------------|

repeat riff B 4x (1:09)
repeat riff A 2x
repeat riff C 1x (1:21)
repeat riff D 1x (1:36)

riff E (1:45)
|---------------------------------------------------|
|---------------------------------------------------|
|---------------------------------------------------|(2x)
|---------7-7-7-7----------55555555-----------------|
|-7-7-7-7-5-5-5-5-33333333-33333333-----------------|
|-5-5-5-5---------11111111--------------------------|

riff F (1:57) (solo-1)
|---------------------------------------------------|
|-15~-13~----13h15----------------------------------|
|---------15-------14~-12-14h15-14-12---------------|(2x)
|-------------------------------------15~-14-14-12~-|
|---------------------------------------------------|
|---------------------------------------------------|

riff G (fast solo is missing)

repeat riff C 1x (2:11)
repeat riff D 1x

riff H (2:36)
|---------------------------------------------------|
|---------------------------------------------------|
|---------------------------------------------------|
|---------------------------------------------------|
|---------------------------------------------------|
|-000-000-000-000-1-0-1-0-1-0-1-0-------------------|
  ... ... ... ... . . . . . . . .

|---------------------------------------------------|
|---------------------------------------------------|
|---------------------------------------------------|
|---------------------------------------------------|
|---------------------------------------------------|
|-000-000-000-000-2-0-2-0-2-0-2-0-------------------|
  ... ... ... ... . . . . . . . .

riff I
|---------------------------------------------------|
|---------------------------------------------------|
|---------------------------------------------------|
|---------------------------------------------------|
|---------------------------------------------------|
|-333-333-333-333-6-3-5-3-5-3-3-3-------------------|
  ... ... ... ... . . . . . . . .

riff J (2:46)
|---------------------------------------------------|
|---------------------------------------------------|
|---------------------------------------------------|(2x)
|----4-----------------------4----------------------|
|-4--2-222-2222222222222--4--2-222-2222222222222----|
|-2-----------------------2-------------------------|

|---------------------------------------------------|
|---------------------------------------------------|
|---------------------------------------------------|
|----4----------------------------------------------|
|-4--2-222-2222222222222--4/7----------4/5----------|
|-2-----------------------2/5-555-5555-2/3-333-3333-|

|---------------------------------------------------|
|---------------------------------------------------|
|---------------------------------------------------|
|---------------------------------------------------|
|-5\4-----------------------------------------------|
|-3\2-222-2222--------------------------------------|

repeat riff D 1x (3:18)
repeat riff J 1x (3:28)

riff K (3:45)
|---------------------------------------------------|
|---------------------------------------------------|
|---------------------------------------------------|(3x)
|----4----------------------------------------------|
|-4--2-2-22-22--2-22-22--2-22-22--2-22-22-----------|
|-2-------------------------------------------------|
       . .. ..  . .. ..  . .. ..  . .. ..

riff L (3:53)
|------------------------------------------------------------|
|------------------------------------------------------------|
|------------------------------------------------------------|
|------------------------------------------------------------|
|-4/7-------------4/5-------------5\4------------------------|
|-2/5-5-55--5-55--2/3-3-33--3-33--3\2-2-22--2-22--2-22--2-22-|
      . ..  . ..      . ..  . ..      . ..  . ..  . ..  . ..

repeat riff H 1x (4:00)
repeat riff A 4x / riff B 4x

riff M (4:33)
|---------------------------------------------------|
|---------------------------------------------------|
|---------------------------------------------------|
|---------------------------------------------------|
|-22-22-22-22--22-22-22-22--22-22-22-22--7----------|
|-00-00-00-00--00-00-00-00--00-00-00-00--5----------|
  .. .. .. ..  .. .. .. ..  .. .. .. ..

(end of song)

  Visit MetalTabs.com for more metal tablature

bottom separator

Contact Us | Privacy Policy | Disclaimer | Legal Notice
Copyright © 2001-2014 MetalTabs.com. All Rights Reserved.