top separator

Home

Forum

What's New

Submit a Tab

FAQ

Links

Contact Us

Link to Us

MuSpy.com

MetalTabs.com logo

Bands

0-9

A

B

C

D

E

F

G

H

I

J

K

L

M

N

O

P

Q

R

S

T

U

V

W

X

Y

Z

Search

What

Where
 

Decapitated - "Babylon's Pride" Guitar Tab

Plain Text Version
More Decapitated Tabs

Hits: 8908
Rated: 4.00 out of 5 (1 vote)
Updated: 2004-06-05 11:56:38

 

By:

Hopkins-WFG

sendpm.gif

email.gif

Important note
This tab is available online because we obtained explicit permission from Decapitated or their label.


#----------------------------------PLEASE NOTE---------------------------------#
#This file is the author's own work and represents their interpretation of the #
#song. You may only use this file for private study, scholarship, or research. #
#Unless specified otherwise, this is NOT an official tab from the band members.#
#------------------------------------------------------------------------------#

  Visit MetalTabs.com for more metal tablature
  
Band:  Decapitated
Album: Nihility
Song:  Babylon's Pride

Copyright (c)  Earache/Wicked World 2002
Version 1.0 - 04-June-2004

Transcribed By: Impaler and Hopkins-WFG
Email:          brokenshaw@yahoo.com / teh_impaler@hotmail.com


.  - palm mute           /  - slide up to
\  - slide down to       ~  - vibrato
h  - hammer on           b  - Bend
p  - pull off            Suffixes for bend
t  - tap                 f  - full bend    h - half bend
ph - pinched harmonic    q  - quarter bend t - tap bend
*  - see comment         ^  - Hold bend    r release bend
x  - Stuccatto           ~  - vibrato bend
,  - slight palm mute    () - ghost note, sustained note
"  - tremolo note        <> - Trill

Tunning D G D F A D [Low to high]


|Intro|

D||-----------------------|-------------------------------|
A||-----------------------|-------------------------------|
F||-----------------------|-------------------------------|
C||-----------------------|-------------------------------|
G||---------7----8~-------|--7-7-7-7-7-7-7-7-6-6-6-6-6----|
D||--0-0-0----------------|--5-5-5-5-5-5-5-5-4-4-4-4-4----|



|--------------------------------|----------------------------------|
|--------------------------------|----------------------------------|
|*-------------------------------|----------------------------------|
|*-------------------------------|----------------------------------|
|---7-7-7--4h-6--1-1-1-1---------|----------------------------------|
|------------------------0-0-0-0-|--0-0-0-0-4-4-4-4-3-3-3-3-6-6-6-6-|



-------------------------------|----------------------------|
-------------------------------|----------------------------|
-------------------------------|----------------------------|
-------------------------------|----------3------------6----|
--7-7-7--4h-6--1-1-1-1---------|----------3------------4----|
-----------------------0-0-0-0-|--0-0-0-0-1----0-0-0-0-4----|



-------------------------------|----------------------------------|
-------------------------------|----------------------------------|
-------------------------------|----------------------------------|
-------------------------------|----------------------------------|
--7-7-7--4h-6--1-1-1-1---------|----------------------------------|
-----------------------0-0-0-0-|--0-0-0-0-4-4-4-4-3-3-3-3-6-6-6-6-|



-------------------------------|-----------------------------------||
-------------------------------|-----------------------------------||
-------------------------------|----------------------------------*||
-------------------------------|----------------------------------*||
--7-7-7--4h-6--1-1-1-1---------|-----------------------------------||
-----------------------0-0-0-0-|--0-0-0-0-1-1-1-1-4-4-4-4-3-3-3-3--||



----------------------------------|------------------------|
----------------------------------|------------------------|
----------------------------------|------------------------|
----------------------------------|------------------------|
----------------------------------|--2----3----6--2--5/-6--|
--0-0-0-0-1-1-1-1-4-4-4-4-3-3-3-3-|--0----1----4--0--3/-4--|


                              |Verse|
----------------------|------||---------------------------|
----------------------|------||---------------------------|
----------------------|------||*--------------------------|
----------------------|------||*--------------------------|
--2----3----6----5----|------||---2--2--6--2--5/-6--2--2--|
--0----1----4----3----|------||---0--0--4--0--3/-4--0--0--|



------------------------|--------------------------|------------------------||
------------------------|--------------------------|------------------------||
------------------------|--------------------------|-----------------------*||
------------------------|--------------------------|-----------------------*||
--2----3----6--2--5/-6--|--5/-6--2--2--2--2--3--6--|--5/-6--2--2--2---------||
--0----1----4--0--3/-4--|--3/-4--0--0--0--0--1--4--|--3/-4--0--0--0---------||



--------------------------|------------------------|--------------------------|
--------------------------|------------------------|--------------------------|
--------------------------|------------------------|--------------------------|
--------------------------|------------------------|--------------------------|
--2--2--6--2--5/-6--2--2--|--2----3----6--2--5/-6--|--5/-6--2--2--2--2--3--6--|
--0--0--4--0--3/-4--0--0--|--0----1----4--0--3/-4--|--3/-4--0--0--0--0--1--4--|



-----------------------|--------------------------|------------------------|
-----------------------|--------------------------|------------------------|
-----------------------|--------------------------|------------------------|
-----------------------|--------------------------|------------------------|
--5/-6--2--2--2--------|--2--2--6--2--5/-6--2--2--|--2----3----6--2--5/-6--|
--3/-4--0--0--0--------|--0--0--4--0--3/-4--0--0--|--0----1----4--0--3/-4--|



--------------------------|-------------------------|------|
--------------------------|-------------------------|------|
--------------------------|-------------------------|------|
--------------------------|-------------------------|------|
--5/-6--2--2--2--2--3--6--|--5/-6--2--2--2--2--2----|------|
--3/-4--0--0--0--0--1--4--|--3/-4--0--0--0--0--0----|------|



|---------------------------|------------------------|
|---------------------------|------------------------|
|*--------------------------|------------------------|
|*--------------------------|------------------------|
|---2--2--6--2--5/-6--2--2--|--2----3----6--2--5/-6--|
|---0--0--4--0--3/-4--0--0--|--0----1----4--0--3/-4--|



--------------------------|------------------------||
--------------------------|------------------------||
--------------------------|-----------------------*||
--------------------------|-----------------------*||
--5/-6--2--2--2--2--3--6--|--5/-6--2--2--2---------||
--3/-4--0--0--0--0--1--4--|--3/-4--0--0--0---------||



---------------------------|------------------------|--------------------------|
---------------------------|------------------------|--------------------------|
*--------------------------|------------------------|--------------------------|
*--------------------------|------------------------|--------------------------|
---2--2--6--2--5/-6--2--2--|--2----3----6--2--5/-6--|--5/-6--2--2--2--2--3--6--|
---0--0--4--0--3/-4--0--0--|--0----1----4--0--3/-4--|--3/-4--0--0--0--0--1--4--|



------------------------||-------------------|----------|
------------------------||-------------------|----------|
-----------------------*||-------------------|----------|
-----------------------*||-------------------|----------|
--5/-6--2--2--2---------||--2----------------|----------|
--3/-4--0--0--0---------||--0----------------|----------|



|------------------------------|----------------------------------|
|------------------------------|----------------------------------|
|*-----------------------------|----------------------------------|
|*-----------------------------|----------------------------------|
|---2--3--2--------------------|----------------------------------|
|---0--1--0----6-6-6-6-5-5-6-6-|--5-5-5-5-1-1-1-1-2-2-2-2-4-4-4-4-|



--------------------------|----------------------------------|
--------------------------|----------------------------------|
--------------------------|----------------------------------|
--------------------------|----------------------------------|
--2----2--3--2------------|----------------------------------|
--0----0--1--0----5-5-5-5-|--4-4-5-5-7-7-7-7-5-5-7-7-8-8-8-8-|



-----------------------------|----------------------------------|
-----------------------------|----------------------------------|
-----------------------------|----------------------------------|
-----------------------------|----------------------------------|
--2--3--2--------------------|----------------------------------|
--0--1--0----6-6-6-6-5-5-6-6-|--5-5-5-5-1-1-1-1-2-2-2-2-4-4-4-4-|



--------------------------|-----------------------------------||
--------------------------|-----------------------------------||
--------------------------|----------------------------------*||
--------------------------|----------------------------------*||
--2----2--3--2------------|-----------------------------------||
--0----0--1--0----5-5-5-5-|--4-4-5-5-7-7-7-7-5-5-7-7-8-8-8-8--||


|Bridge|                                                           3x
--------------------------------|-----------------------------------||
--------------------------------|-----------------------------------||
*-------------------------------|----------------------------------*||
*-------------------------------|----------------------------------*||
--------7-7-7-7-7-7-7-7-6-6-6-6-|--6-6-6-6-5-5-5-5-5-5-5-5-4-4-4-4--||
---0----------------------------|-----------------------------------||



------------------------------|----------------------------------|
------------------------------|----------------------------------|
*-----------------------------|----------------------------------|
*-----------------------------|----------------------------------|
---2--3--2--------------------|----------------------------------|
---0--1--0----6-6-6-6-5-5-6-6-|--5-5-5-5-1-1-1-1-2-2-2-2-4-4-4-4-|


                                                              3x
--------------------------|-----------------------------------||
--------------------------|-----------------------------------||
--------------------------|----------------------------------*||
--------------------------|----------------------------------*||
--2----2--3--2------------|-----------------------------------||
--0----0--1--0----5-5-5-5-|--4-4-5-5-7-7-7-7-5-5-7-7-8-8-8-8--||



-------------------------------|------------------------|
-------------------------------|------------------------|
*------------------------------|------------------------|
*------------------------------|------------------------|
-------------------------------|------------------------|
---0-0-0-0-4--0--3/-4--0-0-0-0-|--0----1----4--0--3/-4--|



------------------------------|--------------------------||
------------------------------|--------------------------||
------------------------------|-------------------------*||
------------------------------|-------------------------*||
------------------------------|--------------------------||
--3/-4--0-0-0-0-0-0-0-0-1--4--|--3/-4--0-0-0-0-0---------||


|Intro as Bridge|
-------------------------------|----------------------------------|
-------------------------------|----------------------------------|
-------------------------------|----------------------------------|
-------------------------------|----------------------------------|
--7-7-7--4h-6--1-1-1-1---------|----------------------------------|
-----------------------0-0-0-0-|--0-0-0-0-4-4-4-4-3-3-3-3-6-6-6-6-|



-------------------------------|----------------------------|
-------------------------------|----------------------------|
-------------------------------|----------------------------|
-------------------------------|----------3------------6----|
--7-7-7--4h-6--1-1-1-1---------|----------3------------4----|
-----------------------0-0-0-0-|--0-0-0-0-1----0-0-0-0-4----|



-------------------------------|----------------------------------|
-------------------------------|----------------------------------|
-------------------------------|----------------------------------|
-------------------------------|----------------------------------|
--7-7-7--4h-6--1-1-1-1---------|----------------------------------|
-----------------------0-0-0-0-|--0-0-0-0-4-4-4-4-3-3-3-3-6-6-6-6-|



-------------------------------|----------------------------------|
-------------------------------|----------------------------------|
-------------------------------|----------------------------------|
-------------------------------|----------------------------------|
--7-7-7--4h-6--1-1-1-1---------|----------3-3-3-3-6-6-6-6-5-5-5-5-|
-----------------------0-0-0-0-|--0-0-0-0-1-1-1-1-4-4-4-4-3-3-3-3-|



------------------------|----------------------|------|
------------------------|----------------------|------|
------------------------|----------------------|------|
------------------------|----------------------|------|
--2----3----6--2--5/-6--|--2----3----6----5----|------|
--0----1----4--0--3/-4--|--0----1----4----3----|------|


|Verse|
|---------------------------|------------------------|
|---------------------------|------------------------|
|*--------------------------|------------------------|
|*--------------------------|------------------------|
|---2--2--6--2--5/-6--2--2--|--2----3----6--2--5/-6--|
|---0--0--4--0--3/-4--0--0--|--0----1----4--0--3/-4--|


                                                   3x
--------------------------|------------------------||------------------|
--------------------------|------------------------||------------------|
--------------------------|-----------------------*||------------------|
--------------------------|-----------------------*||------------------|
--5/-6--2--2--2--2--3--6--|--5/-6--2--2--2---------||------------------|
--3/-4--0--0--0--0--1--4--|--3/-4--0--0--0---------||------------------|


|Mid Section|
|------------------------------|----------------------------------|
|------------------------------|----------------------------------|
|*-----------------------------|----------------------------------|
|*-----------------------------|----------------------------------|
|---2--3--2--------------------|----------------------------------|
|---0--1--0----6-6-6-6-5-5-6-6-|--5-5-5-5-1-1-1-1-2-2-2-2-4-4-4-4-|


                                                              3x
--------------------------|-----------------------------------||
--------------------------|-----------------------------------||
--------------------------|----------------------------------*||
--------------------------|----------------------------------*||
--2----2--3--2------------|-----------------------------------||
--0----0--1--0----5-5-5-5-|--4-4-5-5-7-7-7-7-5-5-7-7-8-8-8-8--||



------------------|----------------------------------|-----------------------|
------------------|----------------------------------|-----------------------|
------------------|----------------------------------|-----------------------|
--4---------------|----------------------------------|--4---------------4----|
--2----2--3--2----|--5-5-5-5-5-5-5-5-4-4-4-4---------|--2----2--3--2----2----|
--2----2--3--2----|--------------------------2-2-2-2-|--2----2--3--2----2----|



----------------------------------||-------------------|
----------------------------------||-------------------|
----------------------------------||*------------------|
----------------------------------||*--4---------------|
--5-5-5-5-5-5-5-5-4-4-4-4---------||---2----2--3--2----|
--------------------------2-2-2-2-||---2----2--3--2----|



----------------------------------|-----------------------|
----------------------------------|-----------------------|
----------------------------------|-----------------------|
----------------------------------|--4---------------4----|
--5-5-5-5-5-5-5-5-4-4-4-4---------|--2----2--3--2----2----|
--------------------------2-2-2-2-|--2----2--3--2----2----|


                                   2x
-----------------------------------||------------------------|
-----------------------------------||------------------------|
----------------------------------*||*-----------------------|
----------------------------------*||*--4---------------4----|
--5-5-5-5-5-5-5-5-4-4-4-4----------||---2----2--3--2----2----|
--------------------------2-2-2-2--||---2----2--3--2----2----|


                                   3x
-----------------------------------||--------------------------------|
-----------------------------------||--------------------------------|
----------------------------------*||*-------------------------------|
----------------------------------*||*-------------------------------|
--5-5-5-5-5-5-5-5-4-4-4-4----------||--------7-7-7-7-7-7-7-7-6-6-6-6-|
--------------------------2-2-2-2--||---0----------------------------|


                                   3x
-----------------------------------||------------------------|
-----------------------------------||------------------------|
----------------------------------*||*-----------------------|
----------------------------------*||*--4---------------4----|
--6-6-6-6-5-5-5-5-5-5-5-5-4-4-4-4--||---2----2--3--2----2----|
-----------------------------------||---2----2--3--2----2----|


                                  3x|Outro|
-----------------------------------||--------------------------------|
-----------------------------------||--------------------------------|
----------------------------------*||*-------------------------------|
----------------------------------*||*-------------------------------|
--5-5-5-5-5-5-5-5-4-4-4-4----------||---2----------------------------|
--------------------------2-2-2-2--||---0----5-5-5-5-5-5-5-5-5-5-5-5-|



----------------------------------|-------------------------------|
----------------------------------|-------------------------------|
----------------------------------|-------------------------------|
----------------------------------|-------------------------------|
----------------------------------|--2----------------------------|
--5-5-5-5-5-5-5-5-4-4-4-4-4-4-4-4-|--0----5-5-5-5-5-5-5-5-5-5-5-5-|


                                   3x
-----------------------------------||---------------------||
-----------------------------------||---------------------||
----------------------------------*||---------------------||
----------------------------------*||---------------------||
-----------------------------------||--------2------------||
--5-5-5-5-5-5-5-5-4-4-4-4-4-4-4-4--||--4--4--0------------||

  Visit MetalTabs.com for more metal tablature

bottom separator

Contact Us | Privacy Policy | Disclaimer | Legal Notice
Copyright © 2001-2014 MetalTabs.com. All Rights Reserved.