top separator

Home

Forum

What's New

Submit a Tab

FAQ

Links

Contact Us

Link to Us

MuSpy.com

MetalTabs.com logo

Bands

0-9

A

B

C

D

E

F

G

H

I

J

K

L

M

N

O

P

Q

R

S

T

U

V

W

X

Y

Z

Search

What

Where
 

Crowbar - "All I Had (I Gave)" Guitar Tab

Plain Text Version
More Crowbar Tabs

Hits: 8611
Rated: 4.50 out of 5 (2 votes)
Updated: 2004-06-02 17:19:39

 

By:

Father Death

sendpm.gif

email.gif

Important note
This tab is available online because we obtained explicit permission from Crowbar or their label.


#----------------------------------PLEASE NOTE---------------------------------#
#This file is the author's own work and represents their interpretation of the #
#song. You may only use this file for private study, scholarship, or research. #
#Unless specified otherwise, this is NOT an official tab from the band members.#
#------------------------------------------------------------------------------#

  Visit MetalTabs.com for more metal tablature
  
Band:  CROWBAR
Album: Crowbar
Song:  All I Had (I Gave)

Transcribed by:        Chris Humeniuk
Email:  father_death_666@hotmail.com

Tuning: 2.5 steps down

Keys:
  b  - bend
 / \ - slide
 ___ - palm mute


INTRO:

|-----------------------------------------------------------------|
|-----------------------------------------------------------------|
|-----------------------------------------------------------------|
|-7--10--10--12--12-10-7--10--10--12--12-10-----------------------|
|-7--10---8--12--10--8-7--10---8--12--10--8-----------------------|
|-5---8---8--10--10--8-5---8---8--10--10--8-8b--7b--8b--7b--/12~--|


VERSE:

|-------------------------------------------|
|-------------------------------------------|
|-------------------------------------------|
|-2--------------------7--10--10--12--12-10-|
|-2--------------------7--10---8--12--10--8-|
|-0----0-0-0-0-0-0-0-0-5---8---8--10--10--8-| 4x
       _______________

|-------------------------------------|
|-------------------------------------|
|-------------------------------------|
|-10-------10----------10--9-------9\-|
|--8-------10-10-10-10-10--9-9-9-9-9\-|
|--8--------8--8--8--8--8--7-7-7-7-7\-|
              ________       _____


CHORUS:

|-----------------------------------------------------|
|-----------------------------------------------------|
|-----------------------------------------------------|
|---------2--------2--0--2----------2--------4--5--5--|
|---------2--------2--0--2----------2--------2--3--5--|
|-0-0-0-0-0----0-0----------0-0-0-0-0----0-0-------3--| 4x
  _______      ___          _______      ___


FILL:

|-----------------------|
|-----------------------|
|-----------------------|
|-----------------------|
|-----------------------|
|-8b--7b--8b--7b--/12~--|


VERSE


CHORUS - 4x


INTERLUDE:

|----------------------------------------------------------|
|----------------------------------------------------------|
|----------------------------------------------------------|
|-2--------------------------------------------------------|
|-2--------------------------------------------------------|
|-0--------------------------------------------------------| 2x

|----------------------------------------------------------
|----------------------------------------------------------
|----------------------------------------5-5-----8-8-------
|-2-----7-----3-3--------2-----7-----3-3-3-3-----8-8-----2-
|-2-----5-----1-1--------2-----5-----1-1-3-3-----6-6-----2-
|-0--00----00-1-1--------0--00----00-1-1------00------00-0-
     __    __               __    __          __      __

 ----------------------------------------------------------|
 ----------------------------------------------------------|
 ----------------------------------------5-5-----8-8-------|
 -2-----7-----3-3--------2-----7-----3-3-3-3-----8-8-------|
 -2-----5-----1-1--------2-----5-----1-1-3-3-----6-6-------|
 -0--00----00-1-1--------0--00----00-1-1------00-----------|
     __    __               __    __          __


BRIDGE:

|------------------------------------------------
|------------------------------------------------
|------------------------------------------------
|----2--3-----3/4-----2--3-----3/4-----2--4-3-2--
|----0--1-----3/4-----0--1-----3/4-----0--2-1-0--
|-0--------0--1/2--0--------0--1/2--0------------
  _        _       _        _       _

 -----------------------------------------------------|
 -----------------------------------------------------|
 -----------------------------------------------------|
 ----2--3-----3/4-----2--3-----3/4--------------------|
 ----0--1-----3/4-----0--1-----3/4--------------------|
 -0--------0--1/2--0--------0--1/2--0-0-3~--0-0-2~--0-| 3x
  _        _       _        _       ___     ___     _

|------------------------------------------------
|------------------------------------------------
|------------------------------------------------
|----2--3-----3/4-----2--3-----3/4-----2--4-3-2--
|----0--1-----3/4-----0--1-----3/4-----0--2-1-0--
|-0--------0--1/2--0--------0--1/2--0------------
  _        _       _        _       _

 -----------------------------------|
 -----------------------------------|
 -----------------------------------|
 ----2--3-----3/4-----2--3-----3/4--|
 ----0--1-----3/4-----0--1-----3/4--|
 -0--------0--1/2--0--------0--1/2--|
  _        _       _        _


OUTRO:
(fades out)
|-----------------------------------------------|
|-----------------------------------------------|
|-----------------------------------------------|
|---------------------------------------3--2----|
|---------------------------------------3--2----|
|-0-0-3~--0-0-2~--------0-0-3~--0-0-2~--1--0----|
  ___     ___           ___     ___

  Visit MetalTabs.com for more metal tablature

bottom separator

Contact Us | Privacy Policy | Disclaimer | Legal Notice
Copyright © 2001-2014 MetalTabs.com. All Rights Reserved.