top separator

Home

Forum

What's New

Submit a Tab

FAQ

Links

Contact Us

Link to Us

MetalTabs.com logo

Bands

0-9

A

B

C

D

E

F

G

H

I

J

K

L

M

N

O

P

Q

R

S

T

U

V

W

X

Y

Z

Search

What

Where
 

Bewitched - "The Sinner And The Saint" Guitar Tab

Plain Text Version
More Bewitched Tabs

Hits: 2169
Updated: 2004-06-02 12:45:41

 

By:

sendpm.gif

email.gif

Important note
We did our best to reach Bewitched and ask for their permission to publish this tab. Unfortunately they did not respond to our requests or we could not find a way to contact them. This tab is available online until Bewitched tells us to take it down.


#----------------------------------PLEASE NOTE---------------------------------#
#This file is the author's own work and represents their interpretation of the #
#song. You may only use this file for private study, scholarship, or research. #
#Unless specified otherwise, this is NOT an official tab from the band members.#
#------------------------------------------------------------------------------#

  Visit MetalTabs.com for more metal tablature
  
Band:Bewitched
Song:The Sinner And The Saint
Album:At The Gates Of Hell

Copyright (c) : OSMOSE Productions 1999

Transcribed by : mitsosxx@hotmail.com (Vaggelis Katzelis)

Tuning: Normal (EADGBe)
.  - palm mute           /  - slide up to
\  - slide down to       ~  - vibrato
h  - hammer on           b  - Bend
p  - pull off            Suffixes for bend
t  - tap                 f  - full bend    h - half bend
ph - pinched harmonic    q  - quarter bend t - tap bend
*  - see comment         ^  - Hold bend    r release bend
x  - Stuccatto           ~  - vibrato bend
,  - slight palm mute    () - bend to corresponding fret
"  - tremolo note        <> - Trill

info:
no..structure...spacing=shit...listen to the song for timing....
2 to go....



riff a->00:00
e|-------------------------------------------------end with-----|
B|--------------------------------------------------------------|
G|--------------------------------------------------------------|
D|-----7/9--9--9--9--7/5--5--5--5----5-4-----------5/12/7-------|
A|-----5/7777777777775/333333333333------7-5-5h7---3/10/5-------|
E|-17/----------------------------------------------------------|
PM        .. .. .. ..   .. .. .. ..

last time replace the last three chords with this
e|--------------------------------------------------------------|
B|--------------------------------------------------------------|
G|--------------------------------------------------------------|
D|--2--7--9-----------------------------------------------------|
A|--0--5--7-----------------------------------------------------|
E|--------------------------------------------------------------|


riff b->00:37
e|--------------------------------------------------------------|
B|--------------------------------------------------------------|
G|--------------------------------------------------------------|
D|--9--9--9--9-12-9--9---9p7--9p7--9--9--9--9-12-9--9---12-7-9--|
A|--7777777777-10-777777----9----9-7777777777-10-777777-10-5-7--|
E|--------------------------------------------------------------|
PM   .. .. ..      .. ..            .. .. ..      .. ..
guitar 2
e|--------------------------------------------------------------|
B|--------------------------------------------------------------|
G|--------------------------------------------------------------|
D|----same thing---------5p4--5p4---same thing------------------|
A|--------------------------5----5------------------------------|
E|--------------------------------------------------------------|



fill 1->00:45
e|--------------------------------------------------------------|
B|--------------------------------------------------------------|
G|--------------------------------------------------------------|
D|-----12--7--9-------------------------------------------------|
A|--77710--5--7-------------------------------------------------|
E|--------------------------------------------------------------|
PM  ...

fill 2->00:55
e|--------------------------------------------------------------|
B|--guitar1-------------guitar2---------------------------------|
G|--------------------------------------------------------------|
D|--9-------------------5---------------------------------------|
A|----9-10----------------5-7-----------------------------------|
E|--------------------------------------------------------------|


riff c->1:18
e|--------------------------------------------------------------|
B|---------------------------------------------parts------------|
G|---------------------------------------------from-------------|
D|---------------------------------------3-2-7-same-------------|
A|-------5---------------5-------5-------5-0-5-pattern-5--------|
E|--777..-875777...875875-8777...-87577..---------------8758----|
PM  .....................................

bends at the end->03:40
e|--------------------------------------------------------------|
B|--5----6-------and----5---6----8-----5------------------------|
G|--7b9--8b10-----------7b9-8b10-10b12-7b9----------------------|
D|--------------------------------------------------------------|
A|--------------------------------------------------------------|
E|--------------------------------------------------------------|

end...

  Visit MetalTabs.com for more metal tablature

bottom separator

Contact Us | Privacy Policy | Disclaimer | Legal Notice
Copyright © 2001-2014 MetalTabs.com. All Rights Reserved.