top separator

Home

Forum

What's New

Submit a Tab

FAQ

Links

Contact Us

Link to Us

MuSpy.com

MetalTabs.com logo

Bands

0-9

A

B

C

D

E

F

G

H

I

J

K

L

M

N

O

P

Q

R

S

T

U

V

W

X

Y

Z

Search

What

Where
 

Vintersorg - "Rundans" Guitar Tab

Plain Text Version
More Vintersorg Tabs

Hits: 3657
Rated: 3.33 out of 5 (3 votes)
Updated: 2004-06-01 14:38:35

 

By:

Darkenelf

sendpm.gif

email.gif

Important note
This tab is available online because we obtained explicit permission from Vintersorg or their label.


#----------------------------------PLEASE NOTE---------------------------------#
#This file is the author's own work and represents their interpretation of the #
#song. You may only use this file for private study, scholarship, or research. #
#Unless specified otherwise, this is NOT an official tab from the band members.#
#------------------------------------------------------------------------------#

  Visit MetalTabs.com for more metal tablature
  
Band: Vintersorg
Album: Till Fjälls
Song: Rundans
Tabbed by: Martijn Wietsma
Tab Date: 01-06-2004
Version: 0.1 (acoustic toggle is missing)
Email: northerland@yahoo.co.uk

Standard E Tuning

(Intro short song)

riff A
|---------------------5-7-8-5----------------------|
|-3~-3~-1------3~-3~-------------------------------|
|---------4-2--------------------------------------|
|--------------------------------------------------|
|--------------------------------------------------|
|--------------------------------------------------|
                                        (2x)

riff B (acoustic stuff) (partly missing) (under riff A)
|--------------------------------------------------|
|--------------------------------------------------|
|-----2--------2-----------------------------------|
|---5--------3------2-(rest comes later)-----------|
|-5------5-3------3--------------------------------|
|--------------------------------------------------|


riff C (0:24)
|--------------------------------------------------|
|--------------------------------------------------|
|--------------------------------------------------|
|--------------------------------------------------|
|-7--3-5---7--3-5---7--3-5---7--10-9-7-------------|
|-5--1-3---5--1-3---5--1-3---5---8-7-5-------------|
                                        (4x)
repeat riff A+B 1x (1:13)


(end of song)

  Visit MetalTabs.com for more metal tablature

bottom separator

Contact Us | Privacy Policy | Disclaimer | Legal Notice
Copyright © 2001-2014 MetalTabs.com. All Rights Reserved.