top separator

Home

Forum

What's New

Submit a Tab

FAQ

Links

Contact Us

Link to Us

MetalTabs.com logo

Bands

0-9

A

B

C

D

E

F

G

H

I

J

K

L

M

N

O

P

Q

R

S

T

U

V

W

X

Y

Z

Search

What

Where
 

Einherjer - "Einheriermarsien" Guitar Tab

Plain Text Version
More Einherjer Tabs

Hits: 5209
Rated: 5.00 out of 5 (2 votes)
Updated: 2004-06-01 14:38:28

 

By:

Darkenelf

sendpm.gif

email.gif

Important note
This tab is available online because we obtained explicit permission from Einherjer or their label.


#----------------------------------PLEASE NOTE---------------------------------#
#This file is the author's own work and represents their interpretation of the #
#song. You may only use this file for private study, scholarship, or research. #
#Unless specified otherwise, this is NOT an official tab from the band members.#
#------------------------------------------------------------------------------#

  Visit MetalTabs.com for more metal tablature
  
Band: Einherjer
Album: Blot
Song: Einherjermarsien
Tabbed by: Martijn Wietsma
Tab Date: 01-06-2004
Email: northerland@yahoo.co.uk

(intro short song)

Standard E Tuning

riff A (0:13)
|-7-5----7-5----5---------------5-8--7-5--4-5-7-8-5-5-|
|-----8------7----8-5----5-7-8------------------------|
|-----------------------------------------------------|
|-----------------------------------------------------|
|-----------------------------------------------------|
|-----------------------------------------------------|
                                                (2x)
repeat riff A 2x (0:36)

riff B (1:00)
|-7---7-8-----7----7-8----7---7-8----11-11-12-12------|
|---5-----5-----5------5----5-----5-------------------|
|-----------------------------------------------------|
|-----------------------------------------------------|
|-----------------------------------------------------|
|-----------------------------------------------------|

repeat riff A 1x (1:13)

(end of song)

  Visit MetalTabs.com for more metal tablature

bottom separator

Contact Us | Privacy Policy | Disclaimer | Legal Notice
Copyright © 2001-2014 MetalTabs.com. All Rights Reserved.