top separator

Home

Forum

What's New

Submit a Tab

FAQ

Links

Contact Us

Link to Us

MetalTabs.com logo

Bands

0-9

A

B

C

D

E

F

G

H

I

J

K

L

M

N

O

P

Q

R

S

T

U

V

W

X

Y

Z

Search

What

Where
 

Amaran - "Coming Home" Guitar Tab

Plain Text Version
More Amaran Tabs

Hits: 3001
Updated: 2004-06-08 05:13:51

 

By:

sendpm.gif

email.gif

Important note
We did our best to reach Amaran and ask for their permission to publish this tab. Unfortunately they did not respond to our requests or we could not find a way to contact them. This tab is available online until Amaran tells us to take it down.


#----------------------------------PLEASE NOTE---------------------------------#
#This file is the author's own work and represents their interpretation of the #
#song. You may only use this file for private study, scholarship, or research. #
#Unless specified otherwise, this is NOT an official tab from the band members.#
#------------------------------------------------------------------------------#

  Visit MetalTabs.com for more metal tablature
  
Ear-transcriptioned tab of the song "Coming Home"
From the band "Amaran"
From their album "Pristine in bondage"

Copyright (c)  Listenable Records 2004
Version 1.01 - 07/06/2004

Transcribed By CRaKaMoN/x2BoLLo
Email: x2bollo@hotmail.com

Tunned down 2 steps


0:00 - 0:11
Gtr. 1
C ||--------------------------------||
G ||--------------------------------||
D#||-16~-14~------------------17----||
A#||---------17~-16~----16-17-------||
F ||-----------------17-------------||
C ||--------------------------------||
                                    ||
Gtr. 2                              || x4
  ||--------------------------------||
  ||--------------------------------||
  ||--------------------------------||
  ||-17~-16~-14~-13~----16-17-19----||
  ||-----------------17-------------||
  ||--------------------------------||


0:11 - 0:22
Gtr. 1 & Gtr. 2
||--------------------------------------------19~---|
||--------------------------17-15-19-17-20-19-16~---|
||Gtr.1 --16-14-17-16-19-17-17-16-19-17-21-19-------|
||Gtr.2 --17-16-19-17-21-19-------------------------|
||--------------------------------------------------|
||--------------------------------------------------|


0:22 - 0:43
Gtr. 1 & Gtr. 2
   PM--------------------------------------------|
||----------------------------------------------------||
||----------------------------------------------------||
||----------------------------------------------------||
||----------------------------------------------------||x2
||-7-9-10--5-7-9--------------------------------------||
||----------------8-10-12--5-7-8--7-8-10--10-12-14----||
   \____/  \___/  \_____/  \___/  \____/  \______/
     x8      x8      x8      x4     x2       x2


0:43 - 1:04
Gtr. 1
|------------------------------------|
|------------------------------------|
|---------5---2--4----------5---2----|
|-2---5---5---2--4--2---5---5---2----|
|-2---5---3---0--2--2---5---3---0----|
|-0---3-------------0---3------------|

Gtr. 2
||---------------------------------------------------------------------
||--10b12----8------------------------10b12----8-----------------------
||--------9----9-9-9-9--9-9-9-7h9-9---------9----9-9--9--9-9-9-7h9-9---
||---------------------------------------------------------------------
||---------------------------------------------------------------------
||---------------------------------------------------------------------


--------------------------------------------------------------------
--10b12----8----------------------10b12----8------------------------
--------9----9-9--9--9-9--7h9-9---------9----9-9-9-9--9-9-9-7h9-9---
--------------------------------------------------------------------
--------------------------------------------------------------------
--------------------------------------------------------------------


---------------------------------------------------------------------
--10b12----8------------------------10b12----8-----------------------
--------9----9-9-9-9--9-9-9-7h9-9---------9----9-9--9--9-9-9-7h9-9---
---------------------------------------------------------------------
---------------------------------------------------------------------
---------------------------------------------------------------------


------------------------------------------------------------||
--10b12----8----------------------10b12----8----------------||
--------9----9-9--9--9-9--7h9-9---------9----9-9-9-9--------||
------------------------------------------------------------||
------------------------------------------------------------||
------------------------------------------------------------||


1:04 - 1:06
Gtr. 1 & Gtr. 2
  PM--------------------|
|----------------------------|
|----------------------------|
|----------------------------|
|-14--12--11--12-12-11--9----|
|-12--10---9--10-10--9--7----|
|----------------------------|

1:06 - 1:27
Gtr. 1 & Gtr. 2
   PM--------------------------------------------|
||----------------------------------------------------
||----------------------------------------------------
||----------------------------------------------------
||----------------------------------------------------
||-7-9-10--5-7-9--------------------------------------
||----------------8-10-12--5-7-8--7-8-10--10-12-14----
   \____/  \___/  \_____/  \___/  \____/  \______/
     x8      x8      x8      x4     x2       x2

         PM-------------------------------------------------------|
       -------------------------------------------------------------||
       -------------------------------------------------------------||
       -------------------------------------------------------------||
Gtr. 2 --5-7--9-----------------------------------------------------||
Gtr. 1 --7-9-10---9-10-12--7--9-10-----------------5-7--9---9-10-12-||
       ----------10-12-14--8-10-12--5/8-7/10-8/12--7-8-10--10-12-14-||
         \____/  \_____/   \_____/  \___________/  \____/  \______/
           x8       x8        x8       x4            x2        x2


1:28 - 1:49
Gtr. 1
||--------------------------------||
||--------------------------------||
||-16~-14~------------------17----||
||---------17~-16~----16-17-------||
||-----------------17-------------||
||--------------------------------||
                                  ||
Gtr. 2                            || x4
||--------------------------------||
||--------------------------------||
||--------------------------------||
||-17~-16~-14~-13~----16-17-19----||
||-----------------17-------------||
||--------------------------------||


1:50 - 2:11
Gtr. 1
||-------------------------||
||-------------------------||
||-------------------------||
||-5--2--4--4---5--2--4~---||
||-3--0--2--2---3--0--2~---||
||-------------------------||

Gtr. 2
||---------------------------------------------------------------------
||------------------------------------10-12-13--12-10--12-10-12--------
||-12-12-11--12p11-9--11-12---------9----------------------------11----
||-------------------------------10------------------------------------
||--------------------------7h12---------------------------------------
||---------------------------------------------------------------------


-----------------------------------------------------
-----------------------------------------------------
-9-11-9-8-9-8----8-----------------------------------
--------------10---10-9-10-9-7-9-7----7--------------
-----------------------------------10---10-9-7-10----
-----------------------------------------------------


----------------------------------------------------------------------||
----------------------------------------------------------------------||
-12--12-12-12-12-11--12-12--12-12--12-12-12-12-11--12-12--12-12-14----||
----------------------------------------------------------------------||
-10--10-10-10-10--9--10-10--10-10--10-10-10-10--9--10-10--10-10-12----||
----------------------------------------------------------------------||


2:12 - 2:55
Gtr. 1
   PM----------------------------|
||------------------------------------||
||------------------------------------||
||------------------------------------||
||------------------------------------|| x16
||------------------------------------||
||-0-0-0-0-0-0-0---0-0-0-0---0-0-0----||

Gtr. 2
||----------12-12-------12-----12-----------12-----12-----12-----12-12----||
||-12-12-12-12-12-12-12-12--12-12-----13-13-13--13-13--13-13--13-13-13----||
||-11-11-11-11-11-11-11-11--11-11-----12-12-12--12-12--12-12--12-12-12----||
||------------------------------------------------------------------------|| x4
||------------------------------------------------------------------------||
||------------------------------------------------------------------------||
   \____________________________/      \______________________________/
                x3                                  x1


2:55 - 3:17 (I'm not sure of all this part)
Gtr. 1
||---------------------------12----15s17-15p14----14------------
||--------------------8~--13----13-------------15----15s17-17~--
||--------------9s11--------------------------------------------
||--9--7--9-----------------------------------------------------
||-----------7--------------------------------------------------
||--------------------------------------------------------------
|
|Gtr. 2
||---------------------------15----19s20-19p17----17------------
||-------------------12~--17----17-------------19----19S20-20~--
||-------------12s14--------------------------------------------
||-12-10-12-----------------------------------------------------
||----------10--------------------------------------------------
||--------------------------------------------------------------


                   T
-15----15--17b19h(20)p19r17~--17-17-17~--15-15-15~---||
----17-----------------------------------------------||
-----------------------------------------------------||
-----------------------------------------------------||
-----------------------------------------------------||
-----------------------------------------------------||
                                                      |
                   T                                  | x2
-19----19--22b24h(24)p24r22~--22-22-22~--19-19-19~---||
----20-----------------------------------------------||
-----------------------------------------------------||
-----------------------------------------------------||
-----------------------------------------------------||
-----------------------------------------------------||


3:17 - 3:37
Gtr. 1
||------------------------------------||
||------------------------------------||
||---------5---2--4----------5---2----||
||-2---5---5---2--4--2---5---5---2----||
||-2---5---3---0--2--2---5---3---0----||
||-0---3-------------0---3------------||

Gtr. 2
||---------------------------------------------------------------------
||--10b12----8------------------------10b12----8-----------------------
||--------9----9-9-9-9--9-9-9-7h9-9---------9----9-9--9--9-9-9-7h9-9---
||---------------------------------------------------------------------
||---------------------------------------------------------------------
||---------------------------------------------------------------------


--------------------------------------------------------------------
--10b12----8----------------------10b12----8------------------------
--------9----9-9--9--9-9--7h9-9---------9----9-9-9-9--9-9-9-7h9-9---
--------------------------------------------------------------------
--------------------------------------------------------------------
--------------------------------------------------------------------


---------------------------------------------------------------------
--10b12----8------------------------10b12----8-----------------------
--------9----9-9-9-9--9-9-9-7h9-9---------9----9-9--9--9-9-9-7h9-9---
---------------------------------------------------------------------
---------------------------------------------------------------------
---------------------------------------------------------------------


------------------------------------------------------------||
--10b12----8----------------------10b12----8----------------||
--------9----9-9--9--9-9--7h9-9---------9----9-9-9-9--------||
------------------------------------------------------------||
------------------------------------------------------------||
------------------------------------------------------------||


3:38 - 3:40
Gtr. 1
   PM--------------------|
||--------------------------------||
||--------------------------------||
||--------------------------------||
||-14--12--11--12-12-11--9--9~----||
||-12--10---9--10-10--9--7--7~----||
||--------------------------------||

Gtr. 2
   PM--------------------|
||--------------------------------||
||--------------------------------||
||-12--11---9--11-11--9--7--7~----||
||-10---9---7---9--9--7--5--5~----||
||--------------------------------||
||--------------------------------||


3:48 - 3:50
Gtr. 1
   PM--------------------|
||------------------------------||
||------------------------------||
||------------------------------||
||-14--12--11--12-12-11--9------||
||-12--10---9--10-10--9--7------||
||------------------------------||

Gtr. 2
   PM--------------------|
||------------------------------||
||------------------------------||
||-12--11---9--11-11--9--7------||
||-10---9---7---9--9--7--5------||
||------------------------------||
||------------------------------||


3:50 - 4:00
Gtr. 1 & Gtr. 2
           PM---------------------------------------------------|
||----------------------------------------------------------------||
||----------------------------------------------------------------||
||----------------------------------------------------------------||
||Gtr. 2 --5-7--9-------------------------------------------------||
||Gtr. 1 --7-9-10---9-10-12--7--9-10--8-10-12--10-12-14---9-10-12-||
||-----------------10-12-14--8-10-12--5--7--8---7--8-10--10-12-14-||
           \____/  \______/  \_____/  \_____/  \______/  \______/
             x8       x8        x8       x4       x2        x2


4:01 - 4:22
Gtr. 1
||--------------------------------||
||--------------------------------||
||-16~-14~------------------17----||
||---------17~-16~----16-17-------||
||-----------------17-------------||
||--------------------------------||
                                  ||
Gtr. 2                            || x4
||--------------------------------||
||--------------------------------||
||--------------------------------||
||-17~-16~-14~-13~----16-17-19----||
||-----------------17-------------||
||--------------------------------||


4:23 - 4:30
Gtr. 1 & Gtr. 2
||---------------------------||
||---------------------------||
||Gtr.1 --16-14-17-16-19-17--||
||Gtr.2 --17-16-19-17-21-19--|| x3
||---------------------------||
||---------------------------||

4:30 - 4:41
Gtr. 1 & Gtr. 2
||-----------------------------------||
||Gtr.1 ---17-15-19-17-20-19-19b20~--||
||Gtr.2 ---17-16-19-17-21-19-19b21~--||
||-----------------------------------||
||-----------------------------------||
||-----------------------------------||

4:42 - 4:48
Gtr. 1 & Gtr. 2
||---------------------------------------------------------||
||---------------------------------------------------------||
||---------------------------------------------------------||
||---------------------------------------------------------||
||-2-2-2-2-2-2-2---2-2-2-2---2-2-2-2-2-2-2-2-2-2---2-2-2-2-||
||-0-0-0-0-0-0-0---0-0-0-0---0-0-0-0-0-0-0-0-0-0---0-0-0-0-||




Tablature Legend
----------------
 h   - hammer-on
 p   - pull-off
 b   - bend
 pb  - pre-bend
 r   - bend release (if no number after the r, then release immediately)
 /\  - slide into or out of (from/to "nowhere")
 s   - legato slide
 S   - shift slide
<n>  - natural harmonic
[n]  - artificial harmonic
n(n) - tapped harmonic
 ~   - vibrato
 tr  - trill
 T   - tap
 TP  - trem. picking
 PM  - palm muting
\n/  - tremolo bar dip; n = amount to dip
 \n  - tremolo bar down
 n/  - tremolo bar up
/n\  - tremolo bar inverted dip
 =   - hold bend; also acts as connecting device for hammers/pulls
 <>  - volume swell (louder/softer)
 x   - on rhythm slash represents muted slash
 o   - on rhythm slash represents single note slash

  Visit MetalTabs.com for more metal tablature

bottom separator

Contact Us | Privacy Policy | Disclaimer | Legal Notice
Copyright © 2001-2014 MetalTabs.com. All Rights Reserved.