top separator

Home

Forum

What's New

Submit a Tab

FAQ

Links

Contact Us

Link to Us

MetalTabs.com logo

Bands

0-9

A

B

C

D

E

F

G

H

I

J

K

L

M

N

O

P

Q

R

S

T

U

V

W

X

Y

Z

Search

What

Where
 

Nydvind - "King of the hills" Guitar Tab

Plain Text Version
More Nydvind Tabs

Hits: 3949
Rated: 2.67 out of 5 (3 votes)
Updated: 2004-05-28 10:18:09

 

By:

Darkenelf

sendpm.gif

email.gif

Important note
This tab is available online because we obtained explicit permission from Nydvind or their label.


#----------------------------------PLEASE NOTE---------------------------------#
#This file is the author's own work and represents their interpretation of the #
#song. You may only use this file for private study, scholarship, or research. #
#Unless specified otherwise, this is NOT an official tab from the band members.#
#------------------------------------------------------------------------------#

  Visit MetalTabs.com for more metal tablature
  
Band: Nydvind
Album: Eternal Winter Domain
Song: King of the Hills
Tabbed by: Martijn Wietsma
Tab Date: 28-05-2004
Email: northerland@yahoo.co.uk

Standard E Tuning

riff A
|------------------------------------------------------|
|------------------------------------------------------|
|------------------------------------------------------|
|-5-5-5-5--5------8-7----5-5-5-5--5--------------------|
|-3-3-3-3--3h8-8--6-5----3-3-3-3--3h8-8--8-6-----------|
|------------6-6--------------------6-6--8-6-----------|

riff B
|------------------------------------------------------|
|------------------------------------------------------|
|------------------------------------------------------|
|-5-5-5-5--5------8-7----5-5-5-5--5--------------------|
|-3-3-3-3--3h8-8--6-5----3-3-3-3--3h8-8--3-3-6\5-------|
|------------6-6--------------------6-6--1-1-4\3-------|

riff C (0:17)
|------------------------------------------------------|
|------------------------------------------------------|
|------------------------------------------------------|
|-5-555-555-55-6\5----5-555-55-6-3-5-------------------|
|-3-333-333-33-4\3----3-333-33-4-1-3-------------------|
|------------------------------------------------------|
                                                (4x)
riff D (0:35)
|------------------------------------------------------|
|------------------------------------------------------|
|------------------------------------------------------|
|----------------------------666-5-5-------------------|
|-5-555--6-5-3-6-8----5-555--444-3-3-------------------|
|-3-333--4-3-1-6-8----3-333----------------------------|
                                                (4x)
repeat riff C 4x (0:52)
repeat riff D 4x (1:09)
repeat riff C 4x (1:27)
repeat riff D 4x (1:45)

riff E (2:02)
|------------------------------------------------------|
|------------------------------------------------------|
|------------------------------------------------------|
|-5~---------------------------------------------------|
|-3----------------------------------------------------|
|------------------------------------------------------|

riff F (2:06) (acoustic)
|------------------------------------------------------|
|------------------------------------------------------|
|------------------------------------------------------|
|-----1-------1-----1----------------------------------|
|---3-----------------3------3----3--------------------|
|-0------0-0-----0-------0-0----0---0-0----------------|
                                                (2x)
riff G (acoustic)
|------------------------------------------------------|
|------------------------------------------------------|
|------------------------------------------------------|
|-----1-------1-----1----------------------------------|
|---3-----------------3------3----3--------------------|
|-1------0-0-----0-------0-0----0---0-0----------------|
                                                (2x)
repeat riff F 2x (2:22)
repeat riff G 2x (2:28)
repeat riff F 2x (2:38)
repeat riff G 2x

riff H (2:50) (acoustic)
|------------------------------------------------------|
|------------------------------------------------------|
|------------------------------------------------------|
|-1h----1-1-0-0-0---1h----1-1-0-0-0--------------------|
|----3-----------------3-------------------------------|
|------------------------------------------------------|

riff I (acoustic)
|------------------------------------------------------|
|------------------------------------------------------|
|-1h----1-1---------1h----1-1--------------------------|
|----3------3-3-3------3------3-3-3--------------------|
|------------------------------------------------------|
|------------------------------------------------------|

repeat riff H 2x
repeat riff I 2x

riff J (3:19) (distortion)
|------------------------------------------------------|
|------------------------------------------------------|
|-----------6--------------------6---------------------|
|-55555555--6--6--3----55555555--6--6--8\6-------------|
|-33333333-----6--1----33333333-----6--8\6-------------|
|------------------------------------------------------|
                                                (4x)
repeat riff H 2x (3:49)
repeat riff I 2x

repeat riff J 4x (4:05)

(4:18) solo 1 (missing)

riff K (solo 2) (4:27)
|-9-7---------------------------15-15-15-15-15-15-15-15|
|-----10-9h10-9-7--9-10--9-7-9-------------------------|
|------------------------------------------------------|
|------------------------------------------------------|
|------------------------------------------------------|
|------------------------------------------------------|

|-16-16-16-16-16-16/18-18-18/20~-20~-------------------|
|------------------------------------------------------|
|------------------------------------------------------|
|------------------------------------------------------|
|------------------------------------------------------|
|------------------------------------------------------|

repeat riff C 4x (4:34)
repeat riff D 4x (4:52)
repeat riff C 4x (5:08)
repeat riff D 4x (5:26)

riff L
|------------------------------------------------------|
|------------------------------------------------------|
|------------------------------------------------------|
|-5~---------------------------------------------------|
|-3----------------------------------------------------|
|------------------------------------------------------|

(end of song)

  Visit MetalTabs.com for more metal tablature

bottom separator

Contact Us | Privacy Policy | Disclaimer | Legal Notice
Copyright © 2001-2014 MetalTabs.com. All Rights Reserved.